» » »

Youth Of A Nation Tabs (ver.1)

Artists:  A B C D E F G H I J K L M N O P Q R S T U V W X Y Z # 

Youth Of A Nation Tabs (ver.1)

P.O.D.
Rating:
0/5 (0 votes)

Hard to play? Try these video lessons and learn fast.
                PROPS GO TO: --Blair--

1=e
2=B
3=G
4=D
5=A
6=D

A lot a echo effects are used, however you can
achieve a similar effect by just playing the notes
as many times as they echo.

intro/chorus riff
|----------------------------------------------------|
|----------------------------------------------------|
|----------------------------------------------------|
|--------------5----------5p3------------------------|
|----------------------------------------------------|
|-0---------3----------------------------------------|

verse riff
|----------------------------------------------------|
|----------------------------------------------------|
|----------------------------------------------------|
|------7~------5p3-------5p3-5-----------------------|
|----------------------------------------------------|
|-0--------------------------------------------------|

verse riff 2

                    1st time             2nd time
|------------|-------------------------|-----------------|
|-------14---|-16-16-16-16-16-17-17-17-|------4----------|
|----13------|-------------------------|--4-4------------|
|-11---------|-------------------------|-----------------|
|------------|-------------------------|-----------------|
|------------|-------------------------|-----------------|

small solo bit.
|------------------------------------------------------|
|------------------------------------------------------|
|--6----8--9---8---9----11---11\9\8---8h9p8\6/8----6\4-|
|------------------------------------------------------|
|------------------------------------------------------|
|------------------------------------------------------|

ENJOY
            
Hard to play? Try these video lessons and learn fast. | Correct




comments powered by Disqus
↑ Back to top | Tablatures and chords are parodies/interpretations of the original songs. You may use it for private study, scholarship, research or language learning purposes only