» » »

P.O.D., Youth Of A Nation Bass tabs (ver.1)

Artists:  A B C D E F G H I J K L M N O P Q R S T U V W X Y Z # 

Youth Of A Nation Bass tabs (ver.1)

P.O.D. Tabs
 Rating:
4/5 (4 votes)
Youth Of A Nation lessons Tabs too difficult? Try these video lessons and learn fast
1
                Tuning: Drop D (D A D G)

Intro
G|---------------------------------------------------\
D|--------------------------------------------------- \
A|-3-3---3-3---6-6---6-6----------------------------- /
D|---------------------------------------------------/

Verse 1
G|---------------------------------------------------\
D|--------------------------------------------------- \
A|-----3----6-6---6-6---6-6-------------------------- /
D|-3-5-----------------------------------------------/

Verse 2
G|---------------------------------------------------\
D|------5--8-8-8------------------------------------- \
A|-3----3--------6-66666668-------------------------- /
D|---5-----------------------------------------------/

Chorus
G|---------------------------------------------------\
D|--------------------------------------------------- \
A|-3-3---3-3---6-6---6-6----------------------------- /
D|---------------------------------------------------/

Solo
G|---------------------------------------------------\
D|--------------------------------------------------- \
A|-----3--------------------------------------------- /
D|-3-5-----0-0-0-------------------------------------/

Intro x6
Verse 2 x 4
Chorus x 4
Verse 1 x 4
Verse 2 x 4
Chorus x 4
Solo x 4
Verse 2 x 4
Chorus until the end
            
Submit corrections

comments powered by Disqus
↑ Back to top | P.O.D. Bass for Youth Of A Nation. Lyrics for acoustic guitar and electric guitar. 1 Tablatures and chords are parodies/interpretations of the original songs. You may use it for private study, scholarship, research or language learning purposes only