» » »

P.O.D., Alive Drum Tabs (ver.1)

Artists:  A B C D E F G H I J K L M N O P Q R S T U V W X Y Z # 

Alive Drum Tabs (ver.1)

P.O.D. Tabs
Rating:
0/5 (0 votes)
Alive lessons Tabs too difficult? Try these video lessons and learn fast
                Drummer: Wuv

Notes:
I'd like to say that I'm POSITIVE there are doubles in the bass drum in some 
parts of the song. If you're going to argue this, please make sure you've 
listen to the song carefully (extra bass helps). One more thing is in the 
video it looks like he's hitting 2 crashes at once, I wasn't sure (too hard to 
tell) so I left it at one. 
Here is the legend I use throughout the song:

>  =  Accent
C  =  Crash cymbals; 1 for splash, 2 for low, 3 for normal, 4 for high, 5 for Chinese
R  =  Ride cymbal; "x" for normal, "O" for bell
H  =  High Hats; "x" for closed, "X" for semi-open, "O" for open
T  =  Tom
T2 =  Tom-Tom
S  =  Snare; "o" for normal, "x" for rim-shot
F  =  Floor tom
B  =  Bass drum



Intro:
 C  |3---------------|3---------------|3---------------|3---------------||
 H  |--X-X-X-X-X-X-X-|--X-X-X-X-X-X-X-|X-X-X-X-X-X-X-X-|--X-X-X-X-X-X-X-||
 S  |----o-------o---|----o-------oo--|----o-------o---|----o-------o---||
 B  |o--o---o---o---o|o--o---o---o---o|o--o---o---o---o|o--o---o--oo---o||
    (1 + 2 + 3 + 4 + |1 + 2 + 3 + 4 + |1 + 2 + 3 + 4 + |1 + 2 + 3 + 4 + |)


1st Verse:
 C  |3---------------|3---------------|3---------------|3---------------|
 H  |--X-X-X-X-X-X-X-|--X-X-X-X-X-X-X-|--X-X-X-X-X-X-X-|--X-X-X-X-X-X-X-|
 T  |----------------|------o---------|----------------|-------------o--|
 T2 |----------------|----------------|----------------|--------------o-|
 S  |----o-------o---|----o--o----oo--|----o-------oo--|-----o------o---|
 B  |o--o---d-o-o---o|o--o-----o-o---o|o--o---o--oo---o|o--o---o---o---o|
    (1 + 2 + 3 + 4 + |1 + 2 + 3 + 4 + |1 + 2 + 3 + 4 + |1 + 2 + 3 + 4 + )

 C  |3---------------|3--------------2|3---------------|3---------------||
 H  |--X-X-X-X-X-X-X-|--X-X-X-X-X-X-X-|--X-X-X-X-X-X-X-|--X-X-X---X-----||
 T  |----------------|--------------o-|----------------|--------oo------||
 T2 |----------------|----------------|----------------|------------oo--||
 T3 |----------------|----------------|----------------|--------------oo||
 S  |----o-------o---|----o-------oo--|----o-------oo--|----oo----------||
 B  |o--o---d-o-o---o|o--o---o---o----|o--o---o---o---o|o--o---o---o----||
    (1 + 2 + 3 + 4 + |1 + 2 + 3 + 4 + |1 + 2 + 3 + 4 + |1 + 2 + 3 + 4 + |)


1st Chorus
 C  |3---------------|3---------------|3-----------2---|3---------------|
 R  |-xxxxxxxxxxxxxxx|-xxxxxxxxxxxxxxx|-xxxxxxx--------|--xx------------|
 H  |----------------|----------------|----------------|----X-X---------|
 T  |----------------|----------------|----------------|-------------d--|
 T2 |----------------|----------------|---------o------|--------------d-|
 T3 |----------------|----------------|--------o-oo----|---------------d|
 S  |----o-------o---|----o-------o---|----o-------o---|----o-o--dddd---|
 B  |o--o---o--oo---o|o--o---o--oo-o-o|o--o---o-----o-o|o--o---oo-------|
    (1 + 2 + 3 + 4 + |1 + 2 + 3 + 4 + |1 + 2 + 3 + 4 + |1 + 2 + 3 + 4 + )

 C  |3---------------|3---------------|3-----------2---|3-----------2---||
 R  |-xxxxxxxxxxxxxxx|-xxxxxxxxxxxxxxx|-xxxxx----------|-xxxxxx---------||
 H  |----------------|----------------|----------------|----------------||
 T  |----------------|----------------|--------o-------|---------o------||
 T2 |----------------|----------------|-------o-o------|----------o-----||
 T3 |----------------|----------------|----------oo----|-------o---o----||
 S  |----o-------o---|----o-------o---|----o-------o---|----o-------o---||
 B  |o--o---o--oo---o|o--o---o--oo-o-o|o--o-------o---o|o--o---o-----o-o||
    (1 + 2 + 3 + 4 + |1 + 2 + 3 + 4 + |1 + 2 + 3 + 4 + |1 + 2 + 3 + 4 + |)

2nd Verse:
 C  |3---------------|3---------------|32--------------|3---------------|
 H  |--X-X-X-X-X-X-X-|--X-X-X-X-X-X---|--X-X-X-X-X-X-X-|--X-X-X-X-X-X---|
 T  |----------------|--------------oo|----------------|--------------d-|
 S  |----o-------oo--|----o-------oo--|----o-------oo--|----oo--o---o---|
 B  |o--o---d---o---o|o--o---o---o----|o--o---o--oo---o|o--o---d-ooo-o-o|
    (1 + 2 + 3 + 4 + |1 + 2 + 3 + 4 + |1 + 2 + 3 + 4 + |1 + 2 + 3 + 4 + )

 C  |3---------------|3---------------|3---------------|3---------------||
 H  |--X-X-X-X-X-X-X-|--X-X---X-X-----|--X-X-X-X-X-X-X-|--X-X-X-X-X-----||
 T  |----------------|------o---------|----------------|----------------||
 T2 |----------------|----------------|----------------|--------ooo-----||
 T3 |----------------|-----------ooo--|----------------|------------oooo||
 S  |----o-------oo--|----o--o------o-|----o-------oo--|----oo----------||
 B  |o--o---o--oo---o|o--o-----o-----o|o--o---o--oo---o|o--o---o--------||
    (1 + 2 + 3 + 4 + |1 + 2 + 3 + 4 + |1 + 2 + 3 + 4 + |1 + 2 + 3 + 4 + |)


2nd Chorus
 C  |3---------------|3---------------|3-----------2---|--------------3-|
 R  |--xxxxxxxxxxxxxx|--xxxxxxxxxxxxxx|--xxxxxx-------x|xxxxxxxx--------|
 H  |----------------|----------------|----------------|----------------|
 T  |----------------|----------------|----------------|--------d-------|
 T2 |----------------|----------------|---------o------|---------dd-----|
 T3 |----------------|----------------|--------o-oo----|-----------ddd--|
 S  |----o-------o---|----o-------o---|----o-------o---|----o-o-------o-|
 B  |o--o---o--oo-o-o|o--o---o--oo-o-o|o--o---o-----o-o|o--o------------|
    (1 + 2 + 3 + 4 + |1 + 2 + 3 + 4 + |1 + 2 + 3 + 4 + |1 + 2 + 3 + 4 + )

 C  |2---------------|3---------------|3-----------2---|3---------------||
 R  |--xxxxxxxxxxxxxx|-xxxxxxxxxxxxxxx|-xxxxx----------|-xxxxxx-x-x-x---||
 H  |----------------|----------------|----------------|----------------||
 T  |----------------|----------------|---------o------|--------oo------||
 T2 |----------------|----------------|------ooo-o-----|----------oo----||
 T3 |----------------|----------------|-----------o----|------------oooo||
 S  |----o-------oo--|----o-------o---|----o-------o---|----o-----------||
 B  |o--o---o---o---o|o--o---o--oo-o-o|o--o---------o-o|o--o---o--------||
    (1 + 2 + 3 + 4 + |1 + 2 + 3 + 4 + |1 + 2 + 3 + 4 + |1 + 2 + 3 + 4 + |)


Bridge:
 C  |3---------------|----------------|3---------------|----------------|
 H  |---------xOO----|---------xOO----|----------------|----------------|
 T  |----------------|----------------|---------o------|----------------|
 T2 |----------------|----------------|------------o---|----------------|
 S  |----------------|----------------|----------------|---------o---o--|
 B  |o--o--o---------|oo-o--o---------|oo-o--o---------|oo-o--o-----o--o|
    (1 + 2 + 3 + 4 + |1 + 2 + 3 + 4 + |1 + 2 + 3 + 4 + |1 + 2 + 3 + 4 + )

       > > > > > > >      > > > > > >      > > > > > >      > > > > > > 
 C  |3---------------|----------------|----------------|----------------|
 H  |-xxxxxxxxxxxdxx-|O-O-xxxxxxxxxdxx|O-O-xdxxxxxxxdxx|O-O-xdxxxxxxxxxx|
 S  |----o------o----|---o--------o---|----o-------o---|----o-----------|
 B  |o-o---o---o----o|o-o----o---o---o|o-o----o---o---o|o-o----o--oo--oo|
    (1 + 2 + 3 + 4 + |1 + 2 + 3 + 4 + |1 + 2 + 3 + 4 + |1 + 2 + 3 + 4 + )

         > > > > > >      > > > > > >      > > > > > >
 C  |3---------------|----------------|----------------|3---------------||
 H  |--O--xdxxxxxxxxx|O-O-xdxxxxxxxxxx|O-O-xxxxxxxxxxxx|--X-X-X-X-------||
 T  |----------------|----------------|----------------|----------dd----||
 T2 |----------------|----------------|----------------|------------dd--||
 T3 |----------------|----------------|----------------|--------------dd||
 S  |----o-------o---|----o-------o---|----o-------oo--|----oo--o-------||
 B  |o-o----o---o---o|o-o----o---o---o|o-o----o---o---o|o--o---o--------||
    (1 + 2 + 3 + 4 + |1 + 2 + 3 + 4 + |1 + 2 + 3 + 4 + |1 + 2 + 3 + 4 + |)


3rd Chorus:
 C  |3---------------|3---------------|3-----------3---|2---------------|
 R  |--xxxxxxxxxxxxxx|--xxxxxxxxxxxxxx|--xxxxxx-------x|-xxxxxxx--------|
 T  |----------------|----------------|----------------|--------d-------|
 T2 |----------------|----------------|----------------|---------dd-----|
 T3 |----------------|----------------|--------oooo----|-----------ddd--|
 S  |----o-------o---|----o-------o---|----o-------o---|----o-o-------o-|
 B  |o--o---o--oo-o-o|o--o---o--oo-o-o|o--o---o-----o-o|o--o------------|
    (1 + 2 + 3 + 4 + |1 + 2 + 3 + 4 + |1 + 2 + 3 + 4 + |1 + 2 + 3 + 4 + )

 C  |3---------------|3---------------|3-----------2---|3---------------||
 R  |--xxxxxxxxxxxxxx|-xxxxxxxxxxxxxxx|-xxxxx----------|--x-------------||
 H  |----------------|----------------|----------------|----X-X-X-------||
 T  |----------------|----------------|---------o------|-------------d--||
 T2 |----------------|----------------|------ooo-o-----|--------------d-||
 T3 |----------------|----------------|-----------o----|---------------d||
 S  |----o-------o---|----o-------o---|----o-------oo--|----o-o---ddd---||
 B  |o--o---o--oo-o-o|o--o---o--oo-o-o|o--o-----------o|o--o----o-------||
    (1 + 2 + 3 + 4 + |1 + 2 + 3 + 4 + |1 + 2 + 3 + 4 + |1 + 2 + 3 + 4 + |)


4th Chorus:
 C  |3-----------2---|3---------------|3-----------2---|3---------------|
 R  |--xxxxxxxxxx-xxx|-xxxxxxxxxxxxxxx|--xxxxxx--------|-xxxxx-x-x-x----|
 T  |----------------|----------------|----------------|-------og-------|
 T2 |----------------|----------------|----------------|---------og-----|
 T3 |----------------|----------------|--------oooo----|-----------ooooo|
 S  |----o-------o---|----o-------o---|----o-------o---|----o-----------|
 B  |o--o---o--oo-o-o|o--o---o--oo-o-o|o--o---o-----o-o|o--o------------|
    (1 + 2 + 3 + 4 + |1 + 2 + 3 + 4 + |1 + 2 + 3 + 4 + |1 + 2 + 3 + 4 + )

 C  |3---------------|3---------------|3---------------|3---------------||
 R  |--xxxxxxxxxxxxxx|-xxxxxxxxxxxxxxx|-xxxxxx---------|-x-xxx-xx-------||
 T  |----------------|----------------|---------o------|---------o--o---||
 T2 |----------------|----------------|-------oo-o-----|----------------||
 T3 |----------------|----------------|-----------o----|-------oo--o-o--||
 S  |----o-------o---|----o-------o---|----o-------o---|----o---------o-||
 B  |o--o---o--oo-o-o|o--o---o--oo-o-o|o--o---------o-o|o-oo-----------o||
    (1 + 2 + 3 + 4 + |1 + 2 + 3 + 4 + |1 + 2 + 3 + 4 + |1 + 2 + 3 + 4 + |)

Outro:
 C  |3---------------|3---------------|3---------------|3---------------||
 H  |--X-X-X-X-X-X-X-|--X-X---X--X----|--X-X-X-X-X-X-X-|--X-X-X-X--O-x--||
 T  |----------------|-----o---oo-----|----------------|----------------||
 T2 |----------------|------------oo--|----------------|----------------||
 T3 |----------------|--------------o-|----------------|----------------||
 S  |----o-------o---|----o--o--------|----o-------oo--|----o---o---f---||
 B  |o--o---d---o---o|o--o------------|o--o---o---o---o|o--o-------o-o--||
    (1 + 2 + 3 + 4 + |1 + 2 + 3 + 4 + |1 + 2 + 3 + 4 + |1 + 2 + 3 + 4 + |)
            

comments powered by Disqus
↑ Back to top | P.O.D. Drum for Alive. Lyrics for acoustic guitar and electric guitar. Tablatures and chords are parodies/interpretations of the original songs. You may use it for private study, scholarship, research or language learning purposes only