>
 >
Youth Of The Nation 1

Youth Of The Nation 1 Guitar Tabs

P.O.D. - Youth Of The Nation 1 chords, tabs, tablatures, lyrics

Guitar lessons | Add/correct | Request | Top 50 tabs Artists:  A B C D E F G H I J K L M N O P Q R S T U V W X Y Z 0-9

Youth Of The Nation 1 Guitar Tabs – P.O.D.

CD, Sheet music, Poster

Do you like Youth Of The Nation 1? Share with your friends now
Bass TabsDrum TabsTabsTabs v2Tabs v3Tabs v4Tabs v5Tabs v6Tabs v7Tabs v8Tabs v9Tabs v10
*----* There Is Effect's That Can Be obtained In This Song   *-----*
       By Buying The Pedals As "Delay Pedal" "Echo Pedal".
       If You Do Not Have These Pedals Or A Mix Pedal You Can
       Get The Same Effects By Really Just Playing The Notes More
       Then Once And Hitting Each Note Lighter After One another. 
       This Song Has A Very Deep Bass Sound. This Song Is actually 
       Played In Drop C Tuning Since That Is Marco's Of PODs Tuning. 
       But I Have Tabbed It in C A D G B e, Its Actually Better Way 
       To Play It It Gets The Perfect Notes. So Basically Have Your Guitar 
       In Standard Tuning Then Drop Your Low E To A Low C. This Tab
       Is 99.9% Because my Band And I Have Done A Cover Of The Song 
       For Performances And Its gotten Huge Responses. Thanx. *-----*
*-----*        

Legend/Key:

~ = Let Note Ring(The More Of The "~" The Longer Ring)
()= Bend The String 
P = Pull Off(Very QuickPull Offs)
h = Hammer Ons

--------------------------------------------------------------(Intro)

 (Intro) (Clean/Delay/Echo)  - 0:00 - 
e|--------------------------------------------------------------|
B|--------------------------------------------------------------|
G|--------------------------------------------------------------|
D|-------(3)~~-3-1-p-0~----(3)~~-3-1-p-0~-----(3)~~-3-1-p-0~----|
A|--------------------------------------------------------------|
C|-0~~~~----------------3------------------3--------------------|
(This Open Note "0" Is
Only Played Once At Begining)
 
-Bending The "3" Will Create That Sound Of The Note Being Strike
 More Then Once.

-This Is Played Through The Drums At The Begining Till The Vocals
 Begin.

-------------------------------------------------------------(Verse)

 (Verse) (Clean/Delay/Echo) - 0:33 - 
e|--------------------------------------------------------------|
B|--------------------------------------------------------------|
G|----0~~--------------------0~~--------------------------------|
D|---------(3)~~-3-1-p-0~-----------(3)~~-3-1-p-0~--------------|
A|--------------------------------------------------------------|
C|-0-----3---------------0------3-------------------------------|

- This Is Somwhat Like The Intro Has The Same Notes Except 2 
  Extra Open Notes Are Added In.

 (Verse) (Clean/Delay/Echo)  - 0:53 -  "Played Over Normal Verse"
e|------8-8-8-8-8-8-8-10-10-10-10-10-10-11-11-11-11-------------|
B|-8~~~---------------------------------------------------------|
G|--------------------------------------------------------------|
D|--------------------------------------------------------------|
A|--------------------------------------------------------------|
C|--------------------------------------------------------------|

- Very Faintly You'll Here 8th Fret Being Hit Then You Will Hear 
  The Rest Of The High Pitched Notes Being Carried Out. It Begins
  When "Call Me Blind But I Didnt See It Coming" And It Ends Just 
  For That Paret At, "Gun Blasts, It Happen So Fast. Didnt Know This 
  Kid Though I Sat By Him In Class" Then Continues After That Till
  The Chorus.

------------------------------------------------------------(Chorus)
 
(Chorus) (Clean/Delay/Echo)  - 1:11 - 
e|--------------------------------------------------------------|
B|--------------------------------------------------------------|
G|--------------------------------------------------------------|
D|---------(3)~~-3-1-p-0~--------(3)~~-3-1-p-0~-----------------|
A|-3~~~-------------------3~~~----------------------------------|
C|-0~~~-3-----------------0~~~-3--------------------------------|

- Theres Very Little Guitar In The Verse Basically The Same Notes 
  But A Strum Added In Every Little Bit.

-------------------------------------------------------------(Verse)

 (Verse) (Clean/Delay/Echo) - 1:32 - 
e|--------------------------------------------------------------|
B|--------------------------------------------------------------|
G|----0~~--------------------0~~--------------------------------|
D|---------(3)~~-3-1-p-0~-----------(3)~~-3-1-p-0~--------------|
A|--------------------------------------------------------------|
C|-0-----3---------------0------3-------------------------------|

- This Is Somwhat Like The Intro Has The Same Notes Except 2 
  Extra Open Notes Are Added In.

 (Verse) (Clean/Delay/Echo)  - 1:52 - "Played Over Normal Verse"
e|------8-8-8-8-8-8-8-10-10-10-10-10-10-11-11-11-11-------------|
B|-8~~~---------------------------------------------------------|
G|--------------------------------------------------------------|
D|--------------------------------------------------------------|
A|--------------------------------------------------------------|
C|--------------------------------------------------------------|

- Very Faintly You'll Here 8th Fret Being Hit Then You Will Hear 
  The Rest Of The High Pitched Notes Being Carried Out. It Begins
  When "Johnny Boy Always Played The Fool" And It Ends Just 
  At The Chorus.

------------------------------------------------------------(Chorus)
 
(Chorus) (Clean/Delay/Echo)  - 2:11 - 
e|--------------------------------------------------------------|
B|--------------------------------------------------------------|
G|--------------------------------------------------------------|
D|---------(3)~~-3-1-p-0~--------(3)~~-3-1-p-0~-----------------|
A|-3~~~-------------------3~~~----------------------------------|
C|-0~~~-3-----------------0~~~-3--------------------------------|

- Theres Very Little Guitar In The Verse Basically The Same Notes 
  But A Strum Added In Every Little Bit.

-------------------------------------------------------------(Solo)

 (Solo) (Mild Distortion) -2:30- 
e|--------------------------------------------------------------|
B|--------------------------------------------------------------|
G|-3-5-6-5-/-7-9-9-h-10-p-9~-h-10-p-9~-\-7~---------------------|
D|--------------------------------------------------------------|
A|--------------------------------------------------------------|
C|--------------------------------------------------------------|

- Note This Is Played Twice For The Solo.
- Note This Aloso Has To Be In Lighter Distortion

-------------------------------------------------------------(Verse)


 (Verse) (Clean/Delay/Echo)  - 2:50 - 
e|------8-8-8-8-8-8-8-10-10-10-10-10-10-11-11-11-11-------------|
B|-8~~~---------------------------------------------------------|
G|--------------------------------------------------------------|
D|--------------------------------------------------------------|
A|--------------------------------------------------------------|
C|--------------------------------------------------------------|

- Very Faintly You'll Here 8th Fret Being Hit Then You Will Hear 
  The Rest Of The High Pitched Notes Being Carried Out. It Begins
  When "Whos To Blame" And It Ends Just 
  At The Chorus.

- Note The Other Notes On The Otrher Guitar Stop Playing While
  These High Pitch play For The Last Verse Till Ther Interlude. 


----------------------------------------------------------(Interlude)

- 3:10 The Guitar Stops As Just The Drums Are Going Through Playing
  The Beat And The Children Sing "We Are We Are...Youth Of Nation"
  This Guitar Begins Back At 3:20, Starting With The Intro Again"

(Intlude) (Clean/Delay/Echo)  - 3:20 - 
e|--------------------------------------------------------------|
B|--------------------------------------------------------------|
G|--------------------------------------------------------------|
D|-------(3)~~-3-1-p-0~----(3)~~-3-1-p-0~-----(3)~~-3-1-p-0~----|
A|--------------------------------------------------------------|
C|-0~~~~----------------3------------------3--------------------|
(This Open Note "0" Is
Only Played Once At Begining)
 
-Bending The "3" Will Create That Sound Of The Note Being Strike
 More Then Once.

- After This You Will Hear Alot Of Wavey Yet Delay Sound Effects This
  Is Actuaclly created by the studio Using Wah/Delay And Flanger Effects. 
  So Basically Just End The Song With These Notes(Lightly I Might Add).

(Outro) (Clean/Delay/Echo)  - 3:20 - 
e|--------10~~~~~~--|
B|-8~~~~~-----------|
G|------------------|
D|------------------|
A|------------------|
C|------------------|
   "We Are...."

Hope You Enjoyed The Tab I Know Its All Like 99.9% Right For Sure Its 
Probably 1 of the best you'll ever find here on the net for this song.





Comments


Popular P.O.D. tabs & chords
Pod Rock Party Bass Tabs
Tambura Bass Tabs
Coming Back 1 Tabs
Eyez Tabs
Goodbye For Now 1 Tabs
Lights Out Tabs
Say Hello Tabs
Set It Off 2 Tabs
Youth Of The Nation Tabs
Youth Of The Nation 5 Tabs


Song lyrics



↑ Back to top | Tablatures and chords are parodies/interpretations of the original songs. You may use it for private study, scholarship, research or language learning purposes only
© 2014 AZChords.com Contact us | Privacy policy | DMCA | Add/correct tabs | Request tabs | Top 50 tabs