» » »

P.O.D., Youth Of A Nation Bass tabs (ver.3)

Artists:  A B C D E F G H I J K L M N O P Q R S T U V W X Y Z # 

Youth Of A Nation Bass tabs (ver.3)

P.O.D. Tabs
4/5 (4 votes)
Youth Of A Nation lessons Tabs too difficult? Try these video lessons and learn fast
                Here is the best way to play this song if you are like me and only own a four string bass.  The song is very easy so here is goes.  There are only two different parts to it so fist I will show you how the parts go then I will tell you what order to play them in.  The picking changes a little so you will have to listen to the album to hear the changes.

Riff 1
Gb  |---------------------------------
Db  |---------------------------------
Ab  |---------------------------------
Eb  |---9-9----0-0----9-9----0-0-

Riff 2
Gb  |-------------------------9--------
Db  |-----------11---------9----------
Ab  |--------11--------7-7-----------
Eb  |---9-9---------------------------

Riff 1-6x
Riff 2-4x
Riff 1-8x
Riff 2-4x
Riff 1-8x
Riff 2-4x
Pause While Children Sing
Riff 1-10x

P.S.  Enjoy the tabs and have fun jammin.  Don’t forget to please rate my tabs so I can see how well I did.
Peace out!
Submit corrections

comments powered by Disqus
↑ Back to top | P.O.D. Bass for Youth Of A Nation. Lyrics for acoustic guitar and electric guitar. Tablatures and chords are parodies/interpretations of the original songs. You may use it for private study, scholarship, research or language learning purposes only