» » »

South Town Tabs (ver.1)

Artists:  A B C D E F G H I J K L M N O P Q R S T U V W X Y Z # 

South Town Tabs (ver.1)

P.O.D.
Rating:
0/5 (0 votes)

Tabs too difficult? Try these video lessons and learn fast.
                PROPS GO TO: Metal Bender

This is correct!
Tuing: L-H D-A-D-G-B-E

Intro  clean                                                 4x
E|---------------------------------------------------------
B|---------------------------------------------------------
G|---------------------------------------------------------
D|-2-2-2-2-2-2-2-2-2-2-2-2-2-2-2-2-2-2-0-0-0-0-0-0-0-0-0-0-
A|-0-0-0-0-0-0-0-0-0-0-0-0-0-0-0-0-0-0-0-0-0-0-0-0-0-0-0-0-
D|---------3-3-3-3-3-3-3-3-3-3---------0-0-0-0-0-0-0-0-0-0-
     distortion  chorus
E|---------------------------------------------------------
B|---------------------------------------repeat to symbol--
G|----\/---------------------------------------------------
D|7-7--3-3-3--3--3-3-3-3-7-7-7-0-0-0--0--0-0-0-0-7-7-7-----
A|7-7--3-3-3--3--3-3-3-3-7-7-7-0-0-0--0--0-0-0-0-7-7-7-----
D|7-7--3-3-3--3--3-3-3-3-7-7-7-0-0-0--0--0-0-0-0-7-7-7-----
break between the two verse and chorus
E|------------------
B|------------------
G|------------------
D|0-3-2-------------
A|------------------
D|------0-3-2-3-2-0-
Verse
E|------------------------------------
B|------------------------------------
G|---------------------------repeat---
D|3-3-5555-3-3-5555-0-0-2222-0-0-2222-
A|3-3------3-3------0-0------0-0------
D|3-3------3-3------0-0------0-0------
Bridge
E|--------------------------------|------------------------------------
B|--------------------------------|------------------------------------
G|------------------------------2x|--repeat4x and end on\/ hold-chorus-
D|0-2-3-0-2-3-0-2-0-2-3-0-2-3-0-2-|-0-2-3-0-2-3-x-x-x-|--7-------------
A|--------------------------------|-0-2-3-0-2-3-x-x-x-|--7-------------
D|--------------------------------|-0-2-3-0-2-3-x-x-x-|--7-------------
repeat certain parts throughout song listen to the song for the order but all the tabs are right I promise. Have fun!
            
Tabs too difficult? Try these video lessons and learn fast.


comments powered by Disqus
↑ Back to top | Tablatures and chords are parodies/interpretations of the original songs. You may use it for private study, scholarship, research or language learning purposes only