» » »

P.O.D., Image Tabs (ver.3)

Artists:  A B C D E F G H I J K L M N O P Q R S T U V W X Y Z # 

Image Tabs (ver.3)

P.O.D. Tabs
 Rating:
4/5 (4 votes)
Image lessons Tabs too difficult? Try these video lessons and learn fast
1
                Dropped D tuning 
Chorus: 2x ("Breathe…") 
E------------------------------------------------------------------------------------------------------------- 

B------------------------------------------------------------------------------------------------------------- 

G------7--7-7-7-7-7-7-7------7--7-7-7-7-7-7-7------------------------------------7--7-7-7-7-7-7-7- 

D-3-0-7--7-7-7-7-7-7-7-3-0-7--7-7-7-7-7-7-7-3-2-3-2-3-2-3-2-3-2-3-2-3-0-7--7-7-7-7-7-7-7- 

A-3-0-5--5-5-5-5-5-5-5-3-0-5--5-5-5-5-5-5-5-3-2-3-2-3-2-3-2-3-2-3-2-3-0-5--5-5-5-5-5-5-5- 

E-3-0----------------------3-0----------------------3-2-3-2-3-2-3-2-3-2-3-2-3-0---------------------- 

E-------------------------------------------------------------------- 
B------------------------------------------------------------------- 
G------7--7-7-7-7-7-7-7----------------------------------------- 
D-3-0-7--7-7-7-7-7-7-7-2-2-2-2-2-2-2-2-2-2-2-2-2-2-2-2- 
A-3-0-5--5-5-5-5-5-5-5-2-2-2-2-2-2-2-2-2-2-2-2-2-2-2-2- 
E-3-0----------------------2-2-2-2-2-2-2-2-2-2-2-2-2-2-2-2- 
Verse: ("I take it all in…") 
E--------------------------------------- 
B--------------------------------------- 
G--------------------------------------- 
D-2-3-0-2--3--2~---2-3-0-2--3--0~ 
A-2-3-0-2--3--2~---2-3-0-2--3--0~ 
E-2-3-0-2--3--2~---2-3-0-2--3--0~ 
Verse 2: ("Stand among, gold seven, and lox'd up…") 
E--------------------------------------------------- 
B--------------------------------------------------- 
G-9-9-9--10-10-10-7-7-7-9-9-9--------------- 
D-9-9-9--10-10-10-7-7-7-9-9-9-2-3-0-2--3- 
A-7-7-7---8---8--8-5-5-5-7-7-7-2-3-0-2--3- 
E------------------------------------2-3-0-2--3- 
Bridge: 
E--------------------------------- 
B--------------------------------- 
G--------------------------------- 
D-2-3-0-2--3-2-3-0-2--3-(0~) 
A-2-3-0-2--3-2-3-0-2--3-(0~) 
E-2-3-0-2--3-2-3-0-2--3-(0~) 
(Verse 2) 
(Bridge) 
(Chorus) 
(Verse)
            
Submit corrections

comments powered by Disqus
↑ Back to top | P.O.D. Tabs for Image. Lyrics for acoustic guitar and electric guitar. 1 Tablatures and chords are parodies/interpretations of the original songs. You may use it for private study, scholarship, research or language learning purposes only