» » »

Image Tabs (ver.1)

Artists:  A B C D E F G H I J K L M N O P Q R S T U V W X Y Z # 

Image Tabs (ver.1)

P.O.D.
Rating:
0/5 (0 votes)

Hard to play? Try these video lessons and learn fast.
                Drop-D

Intro bass & drums

Chorus
E-----------------|--------------|------------------|
B-----------------|--------------|------------------|
G-----------------|--------------|------------------|
D-3-0-7-7-77-77-7-|-3-2-x3-0-3-2-|------------------|
A-3-0-7-7-77-77-7-|-3-2-x3-0-3-2-|-2222222222222222-|
D-3-0-7-7-77-77-7-|-3-2-x3-0-3-2-|-2222222222222222-|

Verse
E------------------|------------------|-----------------------------------------|
B------------------|------------------|-----------------------------------------|
G------------------|------------------|-9-9-9-9--10-10-10-10--7-7-7-7--9-9-9-9--|
D-2-3-0-2-3-2------|-2-3-0-2-3-0------|-x-x-x-x--x--x--x--x---x-x-x-x--x-x-x-x--|
A-2-3-0-2-3-2------|-2-3-0-2-3-0------|-5-5-5-5--7--7--7--7---3-3-3-3--5-5-5-5--|
D-2-3-0-2-3-2------|-2-3-0-2-3-0------|-----------------------------------------|

E-------------------------------|
B-------------------------------|
G-------------------------------|
D-2-3-0-2-3-2-3-0-2-3-2-3-0-2-3-|
A-2-3-0-2-3-2-3-0-2-3-2-3-0-2-3-|
D-2-3-0-2-3-2-3-0-2-3-2-3-0-2-3-|
            
Hard to play? Try these video lessons and learn fast. | Correct




comments powered by Disqus
↑ Back to top | Tablatures and chords are parodies/interpretations of the original songs. You may use it for private study, scholarship, research or language learning purposes only