» » »

P.O.D., Image Tabs (ver.2)

Artists:  A B C D E F G H I J K L M N O P Q R S T U V W X Y Z # 

Image Tabs (ver.2)

P.O.D. Tabs
Rating:
0/5 (0 votes)
Image lessons Tabs too difficult? Try these video lessons and learn fast
                pod
image
TUNING: drop d (D,A,D,G,B,E) 
 
 
     RIFF A: 
 
    |--------------------------| 
    |--------------------------| 
    |---------7--7-7-7-7-7-7-7-| 
    |-3---0---7--7-7-7-7-7-7-7-| 
    |-3---0---5--5-5-5-5-5-5-5-| 
    |-3---0--------------------| 
 
     RIFF B: 
 
    |------------------------| 
    |------------------------| 
    |------------------------| 
    |-3-3--2---3-3--2--3-2-3-| 
    |-3-3--2---3-3--2--3-2-3-| 
    |-3-3--2---3-3--2--3-2-3-| 
 
     RIFF C: 
 
    |---------------------------------| 
    |---------------------------------| 
    |---------------------------------| 
    |-2-2-2-2-2-2-2-2-2-2-2-2-2-2-2-2-| 
    |-2-2-2-2-2-2-2-2-2-2-2-2-2-2-2-2-| 
    |-2-2-2-2-2-2-2-2-2-2-2-2-2-2-2-2-| 
 
     RIFF D: 
 
    |---------------| 
    |---------------| 
    |---------------| 
    |-2-3-0-2--3--2-| 
    |-2-3-0-2--3--2-| 
    |-2-3-0-2--3--2-| 
 
     RIFF E: 
 
    |---------------| 
    |---------------| 
    |---------------| 
    |-2-3-0-2--3--0-| 
    |-2-3-0-2--3--0-| 
    |-2-3-0-2--3--0-| 
 
     RIFF F: 
 
    |------------| 
    |------------| 
    |------------| 
    |-2-3-0-2--3-| 
    |-2-3-0-2--3-| 
    |-2-3-0-2--3-| 
 
     RIFF G: 
 
    |-------------------------------------| 
    |-------------------------------------| 
    |-9-9-9----10-10-10----7-7-7----9-9-9-| 
    |-9-9-9----10-10-10----7-7-7----9-9-9-| 
    |-7-7-7-----8--8--8----5-5-5----7-7-7-| 
    |-------------------------------------|
            

comments powered by Disqus
↑ Back to top | P.O.D. Tabs for Image. Lyrics for acoustic guitar and electric guitar. Tablatures and chords are parodies/interpretations of the original songs. You may use it for private study, scholarship, research or language learning purposes only