» » »

P.O.D., Condescending Tabs (ver.2)

Artists:  A B C D E F G H I J K L M N O P Q R S T U V W X Y Z # 

Condescending Tabs (ver.2)

P.O.D. Tabs
 Rating:
4/5 (4 votes)
Condescending lessons Tabs too difficult? Try these video lessons and learn fast
                (Live)
P.O.D.-Condescending (Live) Guitar Tab
so it might be different from the studio version off of "When Angels and Serpents Dance".

Intro (4x)
 
D|---------------------------------------------------------------------------|
A|---------------------------------------------------------------------------|
F|---------------------------------------------------------------------------|
C|-----2h4-4-4-4---2h4-4-4-4/--7--7-7-7---7-7-7-7--7h9-9---------------------|
G|-----2h4-4-4-4---2h4-4-4-4/--7--7-7-7---7-7-7-7--7h9-9---------------------|
c|-----2h4-4-4-4---2h4-4-4-4/--7--7-7-7---7-7-7-7--7h9-9---------------------|
 
Interlude (2x)
 
D|--------------------------------------------|
A|---5--4--2------2------2------2-------------|
D|-------------4------4-------4-------4-------|
C|--------------------------------------------|
G|--------------------------------------------|
C|--------------------------------------------|
 
Verse (2x)
 
D|-----------------------------------|----------------------------------------|
A|-----------------------------------|----------------------------------------|
F|-----------------------------------|----------------------------------------|
C|------------------------------(2x)-|----------------------------------------|
G|---4-2-4-2-4~---4-2-4-2-4/6~-------|----------------------------------------|
C|-----------------------------------|----4-2-4-2-4~--4-2-4-2-4/6-------------|
 
D|---------------------------------------------------------------------------|
A|---------------------------------------------------------------------------|
F|---------------------------------------------------------------------------|
C|--------------------------------4~---4h6-----------------------------------|
G|------------------------------------------6--------------------------------|
C|--4-2-4-2-4~--4-2-4-2-4--x-x-----------------------------------------------|

Chorus (2x)
 
D|-------------------------------|
A|-------------------------------|
F|-------------------------------|
C|-----------6-7p6-------(2x)----|
G|-------4----------7------------|
C|---7---------------------------|
 
D|---------------------------------------------------------------------------|
A|---------------------------------------------------------------------------|
F|---------------------------------------------------------------------------|
C|-------------4/6---6p4-----------------------------------------------------|
G|------4--x--------------6/2---------4----6--7p6----------------------------|
C|---4-----------------------------4-----------------9-----------------------|
 
Interlude (2x)
 
D|--------------------------------------------|
A|---5--4--2------2------2------2-------------|
D|-------------4------4-------4-------4-------|
C|--------------------------------------------|
G|--------------------------------------------|
C|--------------------------------------------|
 
Verse (2x)
 
D|-----------------------------------|----------------------------------------|
A|-----------------------------------|----------------------------------------|
F|-----------------------------------|----------------------------------------|
C|------------------------------(2x)-|----------------------------------------|
G|---4-2-4-2-4~---4-2-4-2-4/6~-------|----------------------------------------|
C|-----------------------------------|----4-2-4-2-4~--4-2-4-2-4/6-------------|
 
D|---------------------------------------------------------------------------|
A|---------------------------------------------------------------------------|
F|---------------------------------------------------------------------------|
C|--------------------------------4~---4h6-----------------------------------|
G|------------------------------------------6--------------------------------|
C|--4-2-4-2-4~--4-2-4-2-4--x-x-----------------------------------------------|
 
Chorus (4x)
 
D|-------------------------------|
A|-------------------------------|
F|-------------------------------|
C|-----------6-7p6-------(2x)----|
G|-------4----------7------------|
C|---7---------------------------|
 
D|---------------------------------------------------------------------------|
A|---------------------------------------------------------------------------|
F|---------------------------------------------------------------------------|
C|-------------4/6---6p4-----------------------------------------------------|
G|------4--x--------------6/2---------4----6--7p6----------------------------|
C|---4-----------------------------4-----------------9-----------------------|
 
Interlude (2x)
 
D|--------------------------------------------|
A|---5--4--2------2------2------2-------------|
D|-------------4------4-------4-------4-------|
C|--------------------------------------------|
G|--------------------------------------------|
C|--------------------------------------------|

Bridge (2x)

D|---------------------------------------------------------------------------|
A|---------------------------------------------------------------------------|
F|---------------------------------------------------------------------------|
C|---2-2-2-2-2-2-2-2-2-2-2-2-2-----------------------------------------------|
G|---2-2-2-2-2-2-2-2-2-2-2-2-2-----------------------------------------------|
C|---2-2-2-2-2-2-2-2-2-2-2-2-2-----------------------------------------------|

D|---------------------------------------------------------------------------|
A|---------------------------------------------------------------------------|
F|---------------------------------------------------------------------------|
C|---2-2-2-2-2-2-2-2-2-2-2-2-2-----------------------------------------------|
G|---2-2-2-2-2-2-2-2-2-2-2-2-2-----6--4--------------------------------------|
C|---2-2-2-2-2-2-2-2-2-2-2-2-2-----------------------------------------------|

Solo (2x)
 
D|---7-7-7-7-7-7-7-7-7-7-7-7-7-7-7-7--4-4-4-4-4-4--2-2-2-2-2-2-2-2-2-2-------|
A|---5-5-5-5-5-5-5-5-5-5-5-5-5-5-5-5--5-5-5-5-5-5--4-4-4-4-4-4-4-4-4-4-------|
F|---------------------------------------------------------------------------|
C|---------------------------------------------------------------------------|
G|---------------------------------------------------------------------------|
C|---------------------------------------------------------------------------|
 
A|----5-5-5-5-5-5-5-5-5-5-5-5-5-5-5-5-5-5-5-5-5-5-5-5-5-5-5-5-5--------------|
A|----4-4-4-4-4-4-4-4-4-4-4-4-4-4-4-4-4-4-4-4-4-4-4-4-4-4-4-4-4--------------|
F|---------------------------------------------------------------------------|
C|---------------------------------------------------------------------------|
G|---------------------------------------------------------------------------|
C|---------------------------------------------------------------------------|

Chorus (4x)
 
D|-------------------------------|
A|-------------------------------|
F|-------------------------------|
C|-----------6-7p6-------(2x)----|
G|-------4----------7------------|
C|---7---------------------------|
 
D|---------------------------------------------------------------------------|
A|---------------------------------------------------------------------------|
F|---------------------------------------------------------------------------|
C|-------------4/6---6p4-----------------------------------------------------|
G|------4--x--------------6/2---------4----6--7p6----------------------------|
C|---4-----------------------------4-----------------9-----------------------|
 
Outro (6x)
 
D|---------------------------------------------------------------------------|
A|---------------------------------------------------------------------------|
F|---------------------------------------------------------------------------|
C|-----2h4-4-4-4---2h4-4-4-4/--7--7-7-7---7-7-7-7--7h9-9---------------------|
G|-----2h4-4-4-4---2h4-4-4-4/--7--7-7-7---7-7-7-7--7h9-9---------------------|
c|-----2h4-4-4-4---2h4-4-4-4/--7--7-7-7---7-7-7-7--7h9-9---------------------| 
            
Submit corrections

comments powered by Disqus
↑ Back to top | P.O.D. Tabs for Condescending. Lyrics for acoustic guitar and electric guitar. Tablatures and chords are parodies/interpretations of the original songs. You may use it for private study, scholarship, research or language learning purposes only