» » »

P.O.D., Condescending Tabs (ver.3)

Artists:  A B C D E F G H I J K L M N O P Q R S T U V W X Y Z # 

Condescending Tabs (ver.3)

P.O.D. Tabs
 Rating:
4/5 (4 votes)
Condescending lessons Tabs too difficult? Try these video lessons and learn fast
                -------------------------------------------------------------------------------
                             Condescending - P.O.D.
-------------------------------------------------------------------------------

Tuning: Drop D
This Song is pretty easy. I've only got the intro and verse for now but I'm figuring out the rest.

Intro (3X)
e|-------------------------------------------------------|
B|-------------------------------------------------------|
G|-------------------------------------------------------|
D|-5-5-5-5-5--5-5-5-5-5/7-7-7-7-7-7-0-2-2-2-2--0-2-2-2-2-|
A|-5-5-5-5-5--5-5-5-5-5/7-7-7-7-7-7-0-2-2-2-2--0-2-2-2-2-|
D|-5-5-5-5-5--5-5-5-5-5/7-7-7-7-7-7-0-2-2-2-2--0-2-2-2-2-|

Bridge
e|-----------------------------------------------------------------|
B|-----------------------------------------------------------------|
G|-----------------------------------------------------------------|
D|-12p11----------------------------12p11--------------------------|
A|-------14-12-14--12-14--12-14--12-------14-12-14--12-14--12-14\--|
D|-----------------------------------------------------------------|

Verse
e|--------------------------------------------------------|
B|--------------------------------------------------------|
G|--------------------------------------------------------|
D|-9-7-9-7-9--7-9-7-9-7-9-12--7-9-7-9-7-9--7-9-7-9-7-9-12-|
A|-9-7-9-7-9--7-9-7-9-7-9-12--7-9-7-9-7-9--7-9-7-9-7-9-12-|
D|-9-7-9-7-9--7-9-7-9-7-9-12--7-9-7-9-7-9--7-9-7-9-7-9-12-|

e|-----------------------------------------------------------------|
B|-----------------------------------------------------------------|
G|-----------------------------------------------------------------|
D|-0-2-0-2-0-2--0-2-0-2-0-2-5--0-2-0-2-0-2--x-x-12-12-x-x-11-11-11-|
A|-0-2-0-2-0-2--0-2-0-2-0-2-5--0-2-0-2-0-2--x-x-10-10-x-x--9--9--9-|
D|-0-2-0-2-0-2--0-2-0-2-0-2-5--0-2-0-2-0-2--x-x-------x-x----------|




| /  slide up
| \  slide down
| h  hammer-on
| p  pull-off
| ~  vibrato
| +  harmonic
| x  Mute note
===============================================================================
            
Submit corrections

comments powered by Disqus
↑ Back to top | P.O.D. Tabs for Condescending. Lyrics for acoustic guitar and electric guitar. Tablatures and chords are parodies/interpretations of the original songs. You may use it for private study, scholarship, research or language learning purposes only