>
 >
Condescending

Condescending Guitar Tabs

P.O.D. - Condescending chords, tabs, tablatures, lyrics

Guitar lessons | Add/correct | Request | Top 50 tabs Artists:  A B C D E F G H I J K L M N O P Q R S T U V W X Y Z 0-9

Condescending Guitar Tabs – P.O.D.

CD, Sheet music, Poster

Do you like Condescending? Share with your friends now
TabsTabs v2
===============================================================================
                   P.O.D - Condescending
===============================================================================
Tuning: DADGBe (Drop D)
Comment: Feel free to leave a comment
===============================================================================

A- Intro/Outro:

e|-------------------------------------------------------|
B|-------------------------------------------------------|
G|-------------------------------------------------------|
D|-5555-555577-02222-02222-------------------------------|
A|-5555-555577-02222-02222-------------------------------|
D|-5555-555577-02222-02222-------------------------------|


B- Small lead part:

e|-------------------------------------------------------|
B|-3-2--------------------3-2----------------------------|
G|-----4-2-4~-2-4~-2-4~-2-----4-2-4~-2-4~-2-4~-----------|
D|-------------------------------------------------------|
A|-------------------------------------------------------|
D|-------------------------------------------------------|


C- Verse:

e|-------------------------------------------------------|
B|-------------------------------------------------------|
G|-------------------------------------------------------|
D|-------------------------------------------------------|
A|-2-0-2-0-2--0-2-0-2-0-2-4--0-2-0-2-0-2--0-2-0-2-0-2-4--|
D|-------------------------------------------------------|


e|-------------------------------------------------------|
B|-------------------------------------------------------|
G|-------------------------------------------------------|
D|-------------------------------------------------------|
A|----------------------------------------------5-5-----4|
D|-0-2-0-2-0-2--0-2-0-2-0-2-4--0-2-0-2-0-2--0-2-----0-2--|


e|-------------------------------------------------------|
B|-------------------------------------------------------|
G|-------------------------------------------------------|
D|-------------------------------------------------------|
A|-4-----------------------------------------------------|
D|-------------------------------------------------------|


D- Chorus:

e|-------------------------------------------------------|
B|-------------------------------------------------------|
G|-------------------------------------------------------|
D|-----4-4h5p4-------4-4h5p4-------4p2h4-0---------------|
A|---5---------5---5---------5---2---------2---2-5-4-2-0-|
D|-5-------------5-------------2-------------2-----------|


e|-------------------------------------------------------|
B|-------------------------------------------------------|
G|-------------------------------------------------------|
D|-------------------------------------------------------|
A|-------------------------------------------------------|
D|-5-----------------------------------------------------|


E- Bridge part one:

e|-------------------------------------------------------|
B|-------------------------------------------------------|
G|-------------------------------------------------------|
D|-0x2x2x-0x2x2x-0x2x2x-0x2x2x--0x2x2x-0x2x2x-0x2x2x-----|
A|-0x2x2x-0x2x2x-0x2x2x-0x2x2x--0x2x2x-0x2x2x-0x2x2x--2x-|
D|-0x2x2x-0x2x2x-0x2x2x-0x2x2x--0x2x2x-0x2x2x-0x2x2x-----|

e|-------------------------------------------------------|
B|-------------------------------------------------------|
G|-------------------------------------------------------|
D|-------------------------------------------------------|
A|-2x-0x-0x-4-2------------------------------------------|
D|-------------------------------------------------------|


F- Bridge part two:

Guitar 1 (lead)
e|-15151515151515151515151515151515--777777--555555555---|
B|-14141414141414141414141414141414--666666--444444444---|
G|-12121212121212121212121212121212--444444--222222222---|
D|-------------------------------------------------------|
A|-------------------------------------------------------|
D|-------------------------------------------------------|

e|-888888888888888888888888------------------------------|
B|-777777777777777777777777------------------------------|
G|-555555555555555555555555------------------------------|
D|-------------------------------------------------------|
A|-------------------------------------------------------|
D|-------------------------------------------------------|


Guitar 2 (rythm)
e|-------------------------------------------------------|
B|-------------------------------------------------------|
G|-------------------------------------------------------|
D|-022-022-022-022--022-022-022------------------055-055-|
A|-022-022-022-022--022-022-022-2x-2x-0x-0x-4-2--055-055-|
D|-022-022-022-022--022-022-022------------------055-055-|

e|-------------------------------------------------------|
B|-------------------------------------------------------|
G|-------------------------------------------------------|
D|-055-055--055-055-055-055------------------------------|
A|-055-055--055-055-055-055------------------------------|
D|-055-055--055-055-055-055------------------------------|


===============================================================================

|Play those parts in the following order:
|A 2 times
|B 2 times
|C 2 times
|D 1 time
|B 1 time
|C 2 times
|D 2 times
|B 1 time
|E 2 times
|F 2 times
|D 4 times
|A 2 times

===============================================================================

===============================================================================

| /  slide up
| \  slide down
| h  hammer-on
| p  pull-off
| ~  vibrato
| +  harmonic
| x  Mute note
| b  Bend note
===============================================================================





Comments


Popular P.O.D. tabs & chords
Ghetto Bass Tabs
Image 1 Bass Tabs
Rock The Party 1 Bass Tabs
School Of Hard Knocks 2 Bass Tabs
Southtown Drum Tabs
Eyes Of A Stranger Tabs
Revolution Tabs
The Messenjah 2 Tabs
The Messenjah 3 Tabs
Visions Tabs


Song lyrics



↑ Back to top | Tablatures and chords are parodies/interpretations of the original songs. You may use it for private study, scholarship, research or language learning purposes only
© 2014 AZChords.com Contact us | Privacy policy | DMCA | Add/correct tabs | Request tabs | Top 50 tabs