» » »

Paraluman, Tabi Tabs (ver.3)

Artists:  A B C D E F G H I J K L M N O P Q R S T U V W X Y Z # 

Tabi Tabs (ver.3)

Paraluman Tabs
 Rating:
4/5 (4 votes)
Tabi lessons Tabs too difficult? Try these video lessons and learn fast
                Title      :    Tabi
Artist     :    Paraluman
Album      :    Paraluman In-Lab
Para to sa pinaka importanteng babae sa buhay KO!
Hello Jhoniza L. Palima!
(first Tab ko to na sinubmit dito...bahala na kayo kung tama sa inyo, yan kasi pagkakarinig ko.
malugod akong tumatanggap ng suhestyon at kumento)
Tuning: Standard



                        
Intro: E-Bm-A-D (2x)
Guitar 1:(chorus & Delay)
e------------------------------|
b---13/0-(volume swell)--------|
g------------------------------|
D------------------------------|
A------------------------------|
E------------------------------|

Guitar 1: (chorus & Delay)                 Guitar 2: (clean & slight delay)
e------------7~----------------|---------12---12--------------12---12--|
b--5~-7~-9~---------9~-7~-5~---|-9-10-12---10---------9-10-12---10-----|
g------------------------------|---------------------------------------|
D------------------------------|---------------------------------------|
A------------------------------|---------------------------------------|
E------------------------------|---------------------------------------|

Verse:

E                 Bm            A          D
Naranasan mo na bang mawalan ng makakasama

e---10-9-7-----------------------------|
b----------10--/9----------------------|
g--------------------------------------|
D--------------------------------------|
A--------------------------------------|
E--------------------------------------|

E                 Bm             A         D
Sa gitna ng daan, di alam ang pupuntahan

e---10-9-7-----------------------------|
b----------10--/9----------------------|
g--------------------------------------|
D--------------------------------------|
A--------------------------------------|
E--------------------------------------|


Chorus:

E            Bm  
Huwag mag-alala, 
A       D 
di kita pababayaan
E         Bm
Sa Iyong tabi
A            D
Ako ay iyong mahahawakan

Repeat Intro:

E                    Bm        A          D
Naranasan mo na bang madapa at masugatan,

E             Bm            A          D
Hawakan mo ko Hinding hindi pababayaan

Chorus:

E            Bm  
Huwag mag-alala, 
A       D 
di kita pababayaan
E         Bm
Sa Iyong tabi
A            D
Ako ay iyong mahahawakan

Adlib: F#-Bm 3x then A-Bm

e-6p4-6p4-6p4-6p4-6p4--9-7------|--4-6h4-6h4-6h4-6p4--9-7--/10~-9-|
b--------------------------7-9--|---------------------------------|
g-------------------------------|---------------------------------|
D-------------------------------|---------------------------------|
A-------------------------------|---------------------------------|
E-------------------------------|---------------------------------|

e-6p4-6p4-6p4-6p4-6p4--9-7------|-4-6h4-6h4-6h4-6p4--9-7-----9-7---|
b--------------------------7-9--|------------------------7-9-----5-|
g-------------------------------|----------------------------------|
D-------------------------------|----------------------------------|
A-------------------------------|----------------------------------|
E-------------------------------|----------------------------------|

e-----------------------------------------------------------------|
b-10-10-10-10-10-10-10-10-12-12-12-12-12-12-12-12-----------------|
g-----------------------------------------------------------------|
D-----------------------------------------------------------------|
A-----------------------------------------------------------------|
E-----------------------------------------------------------------|
 (pause)
E            Bm  
Huwag mag-alala, 
e-/12~-----------|
b------\12~------|
g----------------|
D----------------|
A----------------|
E----------------|

A       D 
di kita pababayaan
e--------/10~----|
b--\10~----------|
g----------------|
D----------------|
A----------------|
E----------------|

E         Bm
Sa Iyong tabi
e-----------12---12--|
b--9-10-12----10-----|
g--------------------|
D--------------------|x2
A--------------------|
E--------------------|

A            D
Ako ay iyong mahahawakan
e-----------12---12--|
b--9-10-12----10-----|
g--------------------|
D--------------------|x2
A--------------------|
E--------------------|
(repeat chorus 2x)

Outro: E-Bm-A-D( 2x)
            
Submit corrections

comments powered by Disqus
↑ Back to top | Paraluman Tabs for Tabi. Lyrics for acoustic guitar and electric guitar. Tablatures and chords are parodies/interpretations of the original songs. You may use it for private study, scholarship, research or language learning purposes only