>
 >
Tabi 1

Tabi 1 Bass Tabs

Paraluman - Tabi 1 chords, tabs, tablatures, lyrics

Guitar lessons | Add/correct | Request | Top 50 tabs Artists:  A B C D E F G H I J K L M N O P Q R S T U V W X Y Z 0-9

Tabi 1 Bass Tabs – Paraluman

CD, Sheet music, Poster

Do you like Tabi 1? Share with your friends now
Bass TabsBass Tabs v2ChordsChords v2Chords v3TabsTabs v2Tabs v3Tabs v4Tabs v5Tabs v6Ukulele
Tabi
Paraluman & Kean Cipriano

Intro
G|---------|----------------------------------------------------------------|
D|---------|--------------------------------7-7-7-7-7-7-7-7-----------------|
A|---------|7-7-7-7-7-7-7-7-6-6-6-6-6-6-6-6-----------------5-5-5-5-5-5-5-5-|
E|---------|----------------------------------------------------------------|

G|-----------------------------------------------------------------|
D|---------------------------------7-7-7-7-7-7-7-7-----------------|
A|-7-7-7-7-7-7-7-7-6-6-6-6-6-6-6-6-----------------5-5-5-5-5-5-5-5-|
E|-----------------------------------------------------------------|3x

Verse 
G|-------------------------------------------------------9-7-9-7-6-7-|
D|---------------------------------7-7-7-7-7-7-7-7-7-9-9-------------|
A|-7-7-7-7-7-7-7-7-6-6-6-6-6-6-6-6-----------------------------------|
E|-------------------------------------------------------------------|2x

Chorus1 
G|-----------------------------------------------------------------|
D|---------------------------------7-7-7-7-7-7-7-7-----------------|
A|-7-7-7-7-7-7-7-7-6-6-6-6-6-6-6-6-----------------5-5-5-5-5-5-5-5-|
E|-----------------------------------------------------------------|2x

Instrumental  
G|---------------------------|---------------------------|
D|---------------------------|---------------------------|
A|-7--7-7-9--9--7-7-9--7-7-9-|-6--6-6-7--7--6-6-7--6-6-7-|
E|---------------------------|---------------------------|

G|---------------------------|---------------------------|
D|-7--7-7-9--9--7-7-9--7-7-9-|---------------------------|
A|---------------------------|-5--5-5-6--6--5-5-6--5-5-6-|
E|---------------------------|---------------------------|

Repeat verse
Repeat chorus

Interlude 
G|---------------------------------|   
D|---------------------------------|    
A|-8-8-8-8-8-8-8-8-----------------|    
E|-----------------7-7-7-7-7-7-7-7-|3x 

G|-------------------------------------------------|
D|-----------------7-7-7-7-7-7-7-7-9-9-9-9-9-9-9-9-|
A|-------------------------------------------------|
E|-5-5-5-5-5-5-5-5---------------------------------|

Chorus2 "sa iyong tabi. . ."
G|-----------------------------------------------------------------|
D|---------------------------------7-7-7-7-7-7-7-7-----------------|
A|-7-7-7-7-7-7-7-7-6-6-6-6-6-6-6-6-----------------5--5--5--5--5-5-|
E|-----------------------------------------------------------------|

G|-----------------------------------------------------------------|
D|---------------------------------7-7-7-7-7-7-7-7-----------------|
A|-7-7-7-7-7-7-7-7-6-6-6-6-6-6-6-6-----------------5-5-5-5-5-5-5-5-|
E|-----------------------------------------------------------------|2x

G|--------------------------------------------------------------------------|
D|---------------------------------7-7-7-7-7-7-7-7--------------------------|
A|-7-7-7-7-7-7-7-7-6-6-6-6-6-6-6-6-----------------5-5-5-5/1717171717171717-|
E|--------------------------------------------------------------------------|

G|-----------------------------------------------------------------|
D|---------------------------------7-7-7-7-7-7-7-7-----------------|
A|-7-7-7-7-7-7-7-7-6-6-6-6-6-6-6-6-----------------5-5-5-5-5-5-5-5-|
E|-----------------------------------------------------------------|

G|------------------|
D|-------------/7~--|
A|-7~----6~---------|
E|------------------|





Comments


Popular Paraluman tabs & chords
Tabi Bass Tabs
Made-line Chords
Overtime Chords
Silence Chords
Tabi Chords
Tabi 2 Tabs
Emily 2 Ukulele
For You Ukulele
In Lab Ukulele
Tabi Ukulele


Song lyrics



↑ Back to top | Tablatures and chords are parodies/interpretations of the original songs. You may use it for private study, scholarship, research or language learning purposes only
© 2014 AZChords.com Contact us | Privacy policy | DMCA | Add/correct tabs | Request tabs | Top 50 tabs