» » »

Tabi Bass tabs (ver.1)

Artists:  A B C D E F G H I J K L M N O P Q R S T U V W X Y Z # 

Tabi Bass tabs (ver.1)

Paraluman
Rating:
0/5 (0 votes)

Hard to play? Try these video lessons and learn fast.
                Intro

1st part
G|-------------------------------------------------------------------------|
D|-------------------------------------------------------------------------|
A|-----7~-----6~-----12~-----5~------------------------------------------|x2
E|-------------------------------------------------------------------------|
2nd part
G|-------------------------------------------------------------------------|
D|-------------------------------------------------------------------------|
A|-----7777777----6666666----12121212121212----5555555-------------------|x3
E|-------------------------------------------------------------------------|

Verse
G|------------------------------15141514--14-------------------------------|
D|----------------------------14--------15---------------------------------|
A|-----7~-----6~------12~------------------------------------------------|x2
E|-------------------------------------------------------------------------|

Chorus
G|-------------------------------------------------------------------------|
D|-------------------------------------------------------------------------|
A|--7777777--6666666--12121212121212—5555555-----------------------------|x2
E|-------------------------------------------------------------------------|

(Repeat intro prt 2 x1)
(Repeat Verse x2)
(Repeat Chorus)

Adlib
G|-------------------------------------------------------------------------|
D|-------------------------------------------------------------------------|
A|-88888888--------88888888--------88888888--------000000001414141414141414-|x2
E|---------77777777--------77777777--------77777777------------------------|
(rest)

Chorus
G|-------------------------------------------------------------------------|
D|-------------------------------------------------------------------------|
A|-77777777-66666666-1212121212121212-5-5-5-5-5-5-5-5----------------------|
E|-------------------------------------------------------------------------|
(Repeat Chorus 4x)
(Repeat 1st part Of intro)

The End
            
Hard to play? Try these video lessons and learn fast. | Correct




comments powered by Disqus
↑ Back to top | Tablatures and chords are parodies/interpretations of the original songs. You may use it for private study, scholarship, research or language learning purposes only