» » »

Paraluman, Tabi Chords (ver.1)

Artists:  A B C D E F G H I J K L M N O P Q R S T U V W X Y Z # 

Tabi Chords (ver.1)

Paraluman Tabs
Rating:
5/5 (4 votes)
Tabi lessons Tabs too difficult? Try these video lessons and learn fast
                Title      :    Tabi
Artist     :    Paraluman
Album      :    Paraluman In-Lab

For any Comments and Suggestions:



Tuning: Standard

  ======================================================================|
  | I Like to dedicate this song to Jennifer Esteban...Ingat ka lagi... |
  ======================================================================|

*Note: If you don't know how to read the tabs below. Better disregard it.. 

 and the counterpart if you know how to read then good.. Enjoy playing it!

*Please rate and Leave some comments...Thank you!               

                                
Intro: E--A-D (2x)


Guitar 1: (Delay)                 Guitar 2: (clean)
e------------7~----------------|---------------1212--------------1212--|
b--5~-7~--9~--------9~-7~-5~---|-99-1010--1212------99-1010-1212-------|
g------------------------------|---------------------------------------|
D------------------------------|---------------------------------------|
A------------------------------|---------------------------------------|
E------------------------------|---------------------------------------|

Verse:

E                        A        D              
Naranasan mo na bang mawalan ng makakasama


E                   A             D
Sa gitna ng daan, di mo alam ang pupuntahan


Chorus:

E                   A     D 
Huwag mag-alala, di kita pababayaan


E
Sa Iyong tabi


A         D
Ako ay iyong mahahawakan

Repeat Intro:


E                      A            D
Naranasan mo na bang madapa at masugatan,

E                A            D 
Hawakan mo ko Hindi hindi pababayaan

Adlib: F-B 3x then A-B


e-6h4-6h4-6h4-6h4-6h4-----9-7--------9--7--9/10~9~--|
b---------------------7-9---------------------------|
g---------------------------------------------------|
D---------------------------------------------------|
A---------------------------------------------------|
E---------------------------------------------------|

(repeat chorus 2x)

Outro: E--A-D( 2x)



'=================='
/   RoCk En RoLL   \
'------------------'
            
Submit corrections

comments powered by Disqus
↑ Back to top | Paraluman Chords for Tabi. Lyrics for acoustic guitar and electric guitar. Tablatures and chords are parodies/interpretations of the original songs. You may use it for private study, scholarship, research or language learning purposes only