>
 >
Kapitan

Kapitan Guitar Tabs

Paraluman - Kapitan chords, tabs, tablatures, lyrics

Guitar lessons | Add/correct | Request | Top 50 tabs Artists:  A B C D E F G H I J K L M N O P Q R S T U V W X Y Z 0-9

Kapitan Guitar Tabs – Paraluman

CD, Sheet music, Poster

Do you like Kapitan? Share with your friends now
Tabs
Song Title:    Kapitan
Artist/ Band:  Paraluman
Album/Year:    Upcoming Album (2011)


-------------------------------------------------------------------------------------------------

INTRO:

Guitar 1:

|-----------|
|-----------|
|----9~-7~~-|
|-7~-9~-7~~-|
|-7~-7~-5~~-|
|-5~--------|


CHORUS:

Guitar 1:

|--------------7-5-55-------------7-5-55-55555-7-7777-7--7-7--555555-777777-|
|-/55555555555--------55555555555--------77777-9-9999-10-9-10-777777-999999-|
|----------------------------------------66666-9-9999-9--9-9--777777-999999-|
|---------------------------------------------------------------------------|
|---------------------------------------------------------------------------|
|---------------------------------------------------------------------------|

|--------------7-5-55-------------7-5-55-55555-7-7777-7--7-7--555555-777777-77777~~-|
|-/55555555555--------55555555555--------77777-9-9999-10-9-10-777777-999999-99999~~-|
|----------------------------------------66666-9-9999-9--9-9--777777-999999---------|
|-----------------------------------------------------------------------------------|
|-----------------------------------------------------------------------------------|
|-----------------------------------------------------------------------------------|

	                A            D
Sa mundo kong galaw ay kay bilis,
             A             D
Panatag ng loob ko'y di maalis
                 F#m       E
Pagka't ikaw ang aking kapitan,
    D         E
ang aking kapitan.
               A      D
Bumibitaw ma'y di maaalis,
             A          D
Sumasagot ka laging mabilis
                 F#m       E
Pagka't ikaw ang aking kapitan,
    D         E
ang aming kapitan ngayon...


VERSE 1:

Guitar 1: bawat pag D & E	(hndi ako dito masyadong sigurado..hehe cnxa)

|-------2---------|
|-----5-------5~~-|
|---4-----4-------|
|-2---------5-----|
|-----------------|
|-----------------|

Guitar 2: (palm-muted)

A                 D
Madilim man ang daanan,	
      F#m          -  E
Hawak mo'y liwanag	
A                 D
Sa tubig na di umaagos
         F#m           E
Tayo'y muli't muling aahon.


REFRAIN:

Guitar 1:

|-----5-----5-----5-----5-|
|-5-7---5-7---5-7---5-7---|
|-------------------------|  basta ulit-ulitin nyo lang to hanggang matapos ang refrain.
|-------------------------|
|-------------------------|
|-------------------------|

F#m                 A
Pag-ibig mo ang pag-asa
  D               E
Sayo'y laging sasama.


CHORUS:

Guitar 1:

|--------------7-5-55-------------7-5-55-55555-7-7777-7--7-7--555555-777777-|
|-/55555555555--------55555555555--------77777-9-9999-10-9-10-777777-999999-|
|----------------------------------------66666-9-9999-9--9-9--777777-999999-|
|---------------------------------------------------------------------------|
|---------------------------------------------------------------------------|
|---------------------------------------------------------------------------|

|--------------7-5-55-------------7-5-55-55555-7-7777-7--7-7--555555-777777-77777~~-|
|-/55555555555--------55555555555--------77777-9-9999-10-9-10-777777-999999-99999~~-|
|----------------------------------------66666-9-9999-9--9-9--777777-999999---------|
|-----------------------------------------------------------------------------------|
|-----------------------------------------------------------------------------------|
|-----------------------------------------------------------------------------------|

	                A            D
Sa mundo kong galaw ay kay bilis,
             A             D
Panatag ng loob ko'y di maalis
                 F#m       E
Pagka't ikaw ang aking kapitan,
    D         E
ang aking kapitan.
               A      D
Bumibitaw ma'y di maaalis,
             A          D
Sumasagot ka laging mabilis
                 F#m       E
Pagka't ikaw ang aking kapitan,
    D         E
ang aming kapitan ngayon...


VERSE 2:

Guitar 1: bawat pag D & E

|-------2---------|
|-----5-------5~~-|
|---4-----4-------| 2x
|-2---------5-----|
|-----------------|
|-----------------|

Guitar 2: (palm-muted)
	
A               D
Tiwala sayo'y palagi,
           F#m         E
Wala nang iba pang hahanapin.
A                  D
Sa tuwing ako'y inaanod,
        F#m                     E
Patuloy mong sinasagip ang puso ko.


REFRAIN:

Guitar 1:

|-----5-----5-----5-----5-|
|-5-7---5-7---5-7---5-7---|
|-------------------------|
|-------------------------|
|-------------------------|
|-------------------------|

F#m                 A
Pag-ibig mo ang pag-asa
  D               E
Sayo'y laging sasama.


CHORUS:

Guitar 1:

|--------------7-5-55-------------7-5-55-55555-7-7777-7--7-7--555555-777777-|
|-/55555555555--------55555555555--------77777-9-9999-10-9-10-777777-999999-|
|----------------------------------------66666-9-9999-9--9-9--777777-999999-|
|---------------------------------------------------------------------------|
|---------------------------------------------------------------------------|
|---------------------------------------------------------------------------|

|--------------7-5-55-------------7-5-55-55555-7-7777-7--7-7--555555-777777-77777~~-|
|-/55555555555--------55555555555--------77777-9-9999-10-9-10-777777-999999-99999~~-|
|----------------------------------------66666-9-9999-9--9-9--777777-999999---------|
|-----------------------------------------------------------------------------------|
|-----------------------------------------------------------------------------------|
|-----------------------------------------------------------------------------------|

	                A            D
Sa mundo kong galaw ay kay bilis,
             A             D
Panatag ng loob ko'y di maalis
                 F#m       E
Pagka't ikaw ang aking kapitan,
    D         E
ang aking kapitan.
               A      D
Bumibitaw ma'y di maaalis,
             A          D
Sumasagot ka laging mabilis
                 F#m       E
Pagka't ikaw ang aking kapitan,
    D         E
ang aming kapitan ngayon...


ADLIB:

Guitar 2: F#m-D--F#m-A/D--F#m-D--F#m-E-D

Guitar 1:

    F#m      D          F#m        A/D                 F#m       D          F#m  E   D --
|------------------------------------------------------------------------------------------|
|----------------------------------/101010101010101010-------------------------------/10~~-|
|-//66666666-6/99999999-9\66666666---------------------/66666666-6/99999999--/6~-/9~-------|
|------------------------------------------------------------------------------------------|
|------------------------------------------------------------------------------------------|
|------------------------------------------------------------------------------------------|


CHORUS:

Guitar 1:

|-----------------------------------------55555-7-7777-7--7-7--555555-777777-|
|-----------------------------------------77777-9-9999-10-9-10-777777-999999-|
|-----------------7-7-----------------7-7-66666-9-9999-9--9-9--777777-999999-|
|-------7-7-77777-7-7-------7-7-77777-7-7------------------------------------|
|-77777-7-7-55555-5-5-77777-7-7-55555-5-5------------------------------------|
|-55555-5-5-----------55555-5-5----------------------------------------------|
  *****     *****     *****     *****

|--------------7-5-55-------------7-5-55-55555-7-7777-7--7-7--555555-777777-77777~~-|
|-/55555555555--------55555555555--------77777-9-9999-10-9-10-777777-999999-99999~~-|
|----------------------------------------66666-9-9999-9--9-9--777777-999999---------|
|-----------------------------------------------------------------------------------|
|-----------------------------------------------------------------------------------|
|-----------------------------------------------------------------------------------|

	                A            D
Sa mundo kong galaw ay kay bilis,
             A             D
Panatag ng loob ko'y di maalis
                 F#m       E
Pagka't ikaw ang aking kapitan,
    D         E
ang aking kapitan.
               A      D
Bumibitaw ma'y di maaalis,
             A          D
Sumasagot ka laging mabilis
                 F#m       E
Pagka't ikaw ang aking kapitan,
    D         E
ang aming kapitan ngayon...

Guitar 1: (parang may lead dito, kaso hndi ko na masyadong nririnig..hehe!)

|-555555-555555-555555-555555-|-555555-777777-555555-777777-|
|-555555-777777-555555-777777-|-777777-999999-777777-999999-|
|-666666-777777-666666-777777-|-666666-999999-777777-999999-|
|-----------------------------|-----------------------------|
|-----------------------------|-----------------------------|
|-----------------------------|-----------------------------|

A         D    A         D
Aking kapitan, aking kapitan
F#m       E    D         E
Aking kapitan, aking kapitan ngayon.

Guitar 1:

|-----------|
|-----------|
|----9~-7~~-|
|-7~-9~-7~~-|
|-7~-7~-5~~-|
|-5~--------|

/ - slide
~ - let ring
* - palm-mute


paki-rate po..thnx!!:D
----------------------------------------------------------------------------------------------

> Senthyx Zone
> Senthyx Band





Comments


Popular Paraluman tabs & chords
Maghanap Ng Iba Chords
Maghanap Ng Iba 1 Chords
Overtime Chords
Slip Chords
A Christmas Gift Ukulele
Emily 2 Ukulele
How Could I Ukulele
Made-line Ukulele
Maghanap Ng Iba Ukulele
Tabi Ukulele


Song lyrics



↑ Back to top | Tablatures and chords are parodies/interpretations of the original songs. You may use it for private study, scholarship, research or language learning purposes only
© 2014 AZChords.com Contact us | Privacy policy | DMCA | Add/correct tabs | Request tabs | Top 50 tabs