» » »

Paraluman, Tabi Tabs (ver.2)

Artists:  A B C D E F G H I J K L M N O P Q R S T U V W X Y Z # 

Tabi Tabs (ver.2)

Paraluman Tabs
 Rating:
4/5 (4 votes)
Tabi lessons Tabs too difficult? Try these video lessons and learn fast
                

dedicated ko ung song na to para kay yna (sienna anne firme) bestfriend ko, saka sayo na din... =)

kung may tanong kayo txt nyo ko sa dgt ko 09078968043

intro: 

acoustic E - B/Eb - A - D

guitar with delay
e|--------12~slideup----|
B|----------------------|
G|----------------------|
D|----------------------|
A|----------------------|
E|----------------------|

guitar 1 and keyboard
guitar 1: 2X after 2x play 
e|----------7------7----------------------------------|
B|------7-9------9----9-7-----9-7----9-7----9-7-------|
G|--9-9--------9-----------9-------9------9------9----|2x
D|----------------------------------------------------|
A|----------------------------------------------------|
E|----------------------------------------------------|

then.. 


guitar 1 strum
      E           E        A    D
e|-------------------------------------|
B|-------------------------------------|
G|--99999999--999999999--pause---------| 2x
D|-------------------------------------|
A|-------------------------------------|
E|-------------------------------------|

guitar 2
e|------------12-----12---|
B|---9-10-12------12------|
G|------------------------|12x
D|------------------------|
A|------------------------|
E|------------------------|

keyboard: 4x
e|----------7------7----------------------------------|
B|------7-9------9----9-7-----9-7----9-7----9-7-------|
G|--9-9--------9-----------9-------9------9------9----|
D|----------------------------------------------------|
A|----------------------------------------------------|
E|----------------------------------------------------|



verse 1: 

acoustic : E B/Eb A D

guitar 1
naranasan mo na ba..makakasama...
e|-------------|------------------------|
B|-------------|----19-9----------------|
G|---9---------|--9------11--9----------|
D|---x---------|----------------11-9b---|
A|---7---------|------------------------|
E|-------------|------------------------|



sa gitna ng daan...pupuntahan
   (keyboard)        guitar 1
e|-------------|------------------------|
B|-------------|----19-9----------------|
G|--11--13-----|--9------11--9----------|
D|-------------|----------------11-9b---|
A|-------------|------------------------|
E|-------------|------------------------|


guitar 2; drive
e|--------------------------------|
B|--------------------------------|
G|-----9----------------------77--|   
D|-----x----------------------xx--|
A|-----7----------------------55--|
E|--------------------------------|

chorus:

acoustic: E B/Eb A D

guitar 1 (strum)
e|-----------------------|
B|-----------------------|
G|----9---9-------7------|
D|----x---x---7---x------|
A|----7---7---x---5------|
E|------------5----------|

guitar 2
e|------------12-----12---|
B|---9-10-12------12------|
G|------------------------|8x
D|------------------------|
A|------------------------|
E|------------------------|


verse 2:

guitar 1

naranasan mo na ba madapa at masugatan...
e|---------------------------|------------------------|
B|---------------------------|----19-9----------------|
G|---8-9---------------------|--9------11--9----------|
D|---------------------------|----------------11-9b---|
A|---------------------------|------------------------|
E|---------------------------|------------------------|

acoustic: E B/Eb A D

guitar 1 
hawakan mo ako...iiwan....
e|--------------------------------------------|
B|------------------------19-9----------------|
G|---11-13--------------9------11--9----------|
D|------------------------------------11-9b---|
A|--------------------------------------------|
E|--------------------------------------------|
  
guitar 2
e|--------------------------------|
B|--------------------------------|
G|-----9----------------------77--|   
D|-----x----------------------xx--|
A|-----7----------------------55--|
E|--------------------------------|

acoustic: E B/Eb A D

chorus:
instrumental: F# B 3x A B

e|----------------------9~-7----------|
B|---11-9-11-9-11-9-11--------7--9~---|
G|------------------------------------|
D|------------------------------------|
A|------------------------------------|
E|------------------------------------|


e|----------------------9~--7s10-9s7--|
B|--s11-9-11-9-11-9-11----------------|
G|------------------------------------|
D|------------------------------------|
A|------------------------------------|
E|------------------------------------|


e|----------------------9~-7-------9-7--------------------------------------|
B|---11-9-11-9-11-9-11--------7--9~-----9-----999999991313131313131313\\----|
G|----------------------------------------9-9-------------------------------|
D|--------------------------------------------------------------------------|
A|--------------------------------------------------------------------------|
E|--------------------------------------------------------------------------|


chorus:

acoustic E B/Eb A D

guitar 1:
 wag mag alala.....
e|--------slidedown 7-------slidedown 12~------------|
B|---------------------------------------------------|
G|---------------------------------------------------|
D|---------------------------------------------------|
A|---------------------------------------------------|
E|---------------------------------------------------|

 di kita pababayaan...

e|---------slidedown12~---slideup4s7\\----------|
B|----------------------------------------------|
G|----------------------------------------------|
D|----------------------------------------------|
A|----------------------------------------------|
E|----------------------------------------------|


sa iyong tabi ako ay yong mahahawakan..
guitar 1
e|------------12-----12---|
B|---9-10-12------12------|
G|------------------------|2x
D|------------------------|
A|------------------------|
E|------------------------|

e|----------7------7----------------------------------|
B|------7-9------9----9-7-----9-7----9-7----9-7-------|
G|--9-9--------9-----------9-------9------9------9----|
D|----------------------------------------------------|
A|----------------------------------------------------|
E|----------------------------------------------------|

lyrics:
La la la la la...
La la...

Naranasan mo na ba
Mawalan ng makakasama?
Sa gitna ng daan
Hindi alam ang pupuntahan

Huwag mag-alala
Hindi kita pababayaan
Sa iyong tabi
Ako ay iyong mahahawakan

Naranasan mo na ba
Madapa at masugatan?
Hawakan mo ako
Hinding-hindi iiwan


Huwag mag-alala
Hindi kita pababayaan
Sa iyong tabi
Ako ay iyong mahahawakan
            
Submit corrections

comments powered by Disqus
↑ Back to top | Paraluman Tabs for Tabi. Lyrics for acoustic guitar and electric guitar. Tablatures and chords are parodies/interpretations of the original songs. You may use it for private study, scholarship, research or language learning purposes only