» » »

Papa Roach, Broken Home Tabs (ver.4)

Artists:  A B C D E F G H I J K L M N O P Q R S T U V W X Y Z # 

Broken Home Tabs (ver.4)

Papa Roach Tabs
 Rating:
4/5 (4 votes)
Broken Home lessons Tabs too difficult? Try these video lessons and learn fast
                (Intro)
Broken Home (Intro)
This is the correct intro, don't doubt it!!

                        Intro
e|-|-------------------|-------------------|-------------------|
B|-|-------------------|-------------------|-------------------|
G|-|-------------------|-------------------|-------------------|
D|0|4-4-4-4-0-6-6-6-6-0|7-7-7-7-0-6-6-6-6-0|4-4-4-4-0-6-6-6-6-0|
A|0|4-4-4-4-0-4-4-4-4-0|4-4-4-4-0-4-4-4-4-0|4-4-4-4-0-4-4-4-4-0|
E|0|4-4-4-4-0-4-4-4-4-0|4-4-4-4-0-4-4-4-4-0|4-4-4-4-0-4-4-4-4-0|


e|---------------------|
B|---------------------|
G|---------------------|
D|7-7-7-7-0-6-6-6---6-0|
A|4-4-4-4-0-4-4-4---4-0|
E|4-4-4-4-0-4-4-4---4-0|
            
Submit corrections

comments powered by Disqus
↑ Back to top | Papa Roach Tabs for Broken Home. Lyrics for acoustic guitar and electric guitar. Tablatures and chords are parodies/interpretations of the original songs. You may use it for private study, scholarship, research or language learning purposes only