» » »

Papa Roach, Broken Home Tabs (ver.3)

Artists:  A B C D E F G H I J K L M N O P Q R S T U V W X Y Z # 

Broken Home Tabs (ver.3)

Papa Roach Tabs
 Rating:
4/5 (4 votes)
Broken Home lessons Tabs too difficult? Try these video lessons and learn fast
1
                BROKEN HOME

Intro

  Rhy. Fig. 1                                        End Rhy. Fig. 1
E---------------------------------|---------------------------------|
B---------------------------------|---------------------------------|
G-6---6---6---6-------------------|---------------------------------|
D-4---4---4---4-0-6---6---6---6-0-|-7---7---7---7-0-6---6---6---6-0-|
A-4---4---4---4-0-4---4---4---4-0-|-7---7---7---7-0-6---6---6---6-0-|
D-4---4---4---4-0-4---4---4---4-0-|-4---4---4---4-0-4---4---4---4-0-|
                                                                    
|---------------------------------|---------------------------------|
|---------------------------------|---------------------------------|
|-6---6---6---6-------------------|---------------------------------|
|-4---4---4---4-0-6---6---6---6-0-|-7---7---7---7-0-6---6---6---6-0-|
|-4---4---4---4-0-4---4---4---4-0-|-7---7---7---7-0-6---6---6---6-0-|
|-4---4---4---4-0-4---4---4---4-0-|-4---4---4---4-0-4---4---4---4-0-|
                                                                     
                                                        play 4 times
                                    Rhy. Fig. 2      End Rhy. Fig. 2    
|---------------------------------|-1414----141414141414141414141414| Gtr. 2
|---------------------------------|-1414----141414141414141414141414| (dist.)
|---------------------------------|.6-6---6------------------------.|
|-7---7---7---7---7---7---7---7---|.4-4---4-6-6---6-7-7---7-9-9----.|
|-7---7---7---7---7---7---7---7---|-4-4---4-4-4---4-5-5---5-7-7-----| Gtr. 1
|-4---4---4---4---4---4---4---4---|-4-4---4-6-6---6-7-7---7-9-9---0-| divisi

Verse

  Gtrs. 1 & 2
|---------------------------------|---------------------------------|
|---------------------------------|---------------------------------|
|-6-6-X-X-6/7-X-7-7/9-9---4-4-4---|---------6/7-X-7-7/9-9---4-4-4---|
|-4-4-X-X-X---X-X-X---X---2-2-2---|-7-7-X-X-X---X-X-X---X---2-2-2---|
|-4-4-X-X-4/5-X-5-5/7-7---2-2-2---|-4-4-X-X-4/5-X-5-5/7-7---2-2-2---|
|-4-4-X-X---------------0-2-2-2-0-|-4-4-X-X---------------0-2-2-2-0-|

  Rhy. Fig. 3                                        End Rhy. Fig. 3
|---------------------------------|---------------------------------|
|---------------------------------|---------------------------------|
|---------6/7-X-7-7/9-9---4-4-4---|---------6/7-X-7-7/9-9---4-4-4---|
|-6-6-X-X-X---X-X-X---X---2-2-2---|-7-7-X-X-X---X-X-X---X---2-2-2---|
|-4-4-X-X-4/5-X-5-5/7-7---2-2-2---|-4-4-X-X-4/5-X-5-5/7-7---2-2-2---|
|-4-4-X-X---------------0-2-2-2-0-|-4-4-X-X---------------0-2-2-2-0-|

Pre-Chorus

  Rhy. Fig. 4
|---------------------------------|---------------------------------|
|---------------------------------|---------------------------------|
|-6-6-X-X-6-6-X-X-6-6-X-X-6-6-6---|-7-7-7-7-6-6-6-6-4-4-4-4---------|
|-4-4-X-X-4-4-X-X-4-4-X-X-4-4-4---|-X-X-X-X-X-X-X-X-X-X-X-X-2-2-2-2-|
|-4-4-X-X-4-4-X-X-4-4-X-X-4-4-4---|-5-5-5-5-4-4-4-4-2-2-2-2-0-0-0-0-|
|-4-4-X-X-4-4-X-X-4-4-X-X-4-4-4-0-|---------------------------------|
 
                                                     End Rhy. Fig. 3
|---------------------------------|---------------------------------|
|---------------------------------|---------------------------------|
|---------------------------------|-7-7-7-7-6-6-6-6-4-4-4-4-6\------|
|-4-4-X-X-4-4-X-X-4-4-X-X-4-4-4---|-X-X-X-X-X-X-X-X-X-X-X-X-X-------|
|-4-4-X-X-4-4-X-X-4-4-X-X-4-4-4---|-5-5-5-5-4-4-4-4-2-2-2-2-4\--2p0-|
|-4-4-X-X-4-4-X-X-4-4-X-X-4-4-4-0-|-----------------------------2p0-|

Chorus

|---------------------------------|---------------------------------|
|---------------------------------|---------------------------------|
|-6---6---6---6-------------------|---------------------------------|
|-4---4---4---4-0-6---6---6---6-0-|-7---7---7---7-0-6---6---6---6-0-|
|-4---4---4---4-0-4---4---4---4-0-|-7---7---7---7-0-6---6---6---6-0-|
|-4---4---4---4-0-4---4---4---4-0-|-4---4---4---4-0-4---4---4---4-0-|

|---------------------------------|---------------------------------|
|---------------------------------|---------------------------------|
|-6---6---6---6-------------------|---------------------------------|
|-4---4---4---4-0-6---6---6---6-0-|-7---7---7---7-0-6---6---6---6-0-|
|-4---4---4---4-0-4---4---4---4-0-|-7---7---7---7-0-6---6---6---6-0-|
|-4---4---4---4-0-4---4---4---4-0-|-4---4---4---4-0-4---4---4---4-0-|

Interlude 

  Gtrs. 1 & 2         P.M.    P.M.                      P.M.    P.M.   
|---------------------------------|---------------------------------|
|---------------------------------|---------------------------------|
|-6-6-------------6-6-----4-4-----|-------------------------4-4-----|
|-4-4-------------4-4-----2-2-----|-7-7-------------7-7-----2-2-----|
|-4-4-------------4-4-----2-2-----|-4-4-------------4-4-----2-2-----|
|-4-4-------------4-4---0-2-2---0-|-4-4-------------4-4---0-2-2---0-|
                                     
                      P.M.    P.M.                      P.M.    P.M.  
|---------------------------------|---------------------------------|
|---------------------------------|---------------------------------|
|-------------------------4-4-----|-------------------------4-4-----|
|-6-6-------------6-6-----2-2-----|-7-7-------------7-7-----2-2-----|
|-4-4-------------4-4-----2-2-----|-4-4-------------4-4-----2-2-----|
|-4-4-------------4-4---0-2-2---0-|-4-4-------------4-4---0-2-2---0-|

|---------------------------------|
|---------------------------------|
|---------------------------------|
|-7---7---7---7---7---7---7---7---|
|-4---4---4---4---4---4---4---4---|
|-4---4---4---4---4---4---4---4---|

Chorus

  Gtrs. 1 & 2
|---------------------------------|---------------------------------|
|---------------------------------|---------------------------------|
|-6---6-----6---------------------|---------------------------------|
|-4---4-----4-----6---6-----6-----|-7---7-----7-----6---6-----6-----|
|-4---4-----4-----4---4-----4-----|-4---4-----4-----4---4-----4-----|
|-4---4-----4---0-4---4-----4---0-|-4---4-----4---0-4---4-----4---0-|

|---------------------------------|---------------------------------|
|---------------------------------|---------------------------------|
|-6---6-----6---------------------|---------------------------------|
|-4---4-----4-----6---6-----6-----|-7---7-----7-----6---6-----6-----|
|-4---4-----4-----4---4-----4-----|-4---4-----4-----4---4-----4-----|
|-4---4-----4---0-4---4-----4---0-|-4---4-----4---0-4---4-----4---0-|

  pick slide
|---------------------------------|
|---------------------------------|
|---------------------------------|
|---------------------------------|
|---------------------------------|
|-X/------------------------------|

Outro

|---------------------------------|---------------------------------|
|---------------------------------|---------------------------------|
|-6-6---6-------------------------|-6-6---6-------------------------|
|-4-4---4-6---6---7---7---9---9---|-4-4---4-6---6---7---7---9---9---|
|-4-4---4-4---4---5---5---7---7---|-4-4---4-4---4---5---5---7---7---|
|-4-4---4-6---6---7---7---9---9-0-|-4-4---4-6---6---7---7---9---9-0-|

|---------------------------------|---------------------------------|
|---------------------------------|---------------------------------|
|-6-6---6-------------------------|-6-6-6-6-------------------------|
|-4-4---4-6---6---7---7---9---9---|-4-4-4-4-6-6-6-6-7-7-7-7-9-9-9---|
|-4-4---4-4---4---5---5---7---7---|-4-4-4-4-4-4-4-4-5-5-5-5-7-7-7---|
|-4-4---4-6---6---7---7---9---9-0-|-4-4-4-4-6-6-6-6-7-7-7-7-9-9-9-0-|

  
|-----------------------------------------|
|-----------------------------------------|
|-----------------------------------------|
|-7-7-7-7---7-7-7-7---7-7-7-7---7-7-7-7---|
|-4-4-4-4---4-4-4-4---4-4-4-4---4-4-4-4---|
|-4-4-4-4---4-4-4-4---4-4-4-4---4-4-4-4---|

|-----------------|-----------------|-----------------|-----------------|
|-----------------|-----------------|-----------------|-----------------|
|-----------------|-----------------|-----------------|-----------------|
|-7-7-7-7-7-7-7-7-|-7-7-7-7-7-7-7-7-|-7-7-7-7-7-7-7-7-|-7-7-7-7-7-7-7-7-|
|-4-4-4-4-4-4-4-4-|-4-4-4-4-4-4-4-4-|-4-4-4-4-4-4-4-4-|-4-4-4-4-4-4-4-4-|
|-4-4-4-4-4-4-4-4-|-4-4-4-4-4-4-4-4-|-4-4-4-4-4-4-4-4-|-4-4-4-4-4-4-4-4-|
            
Submit corrections

comments powered by Disqus
↑ Back to top | Papa Roach Tabs for Broken Home. Lyrics for acoustic guitar and electric guitar. 1 Tablatures and chords are parodies/interpretations of the original songs. You may use it for private study, scholarship, research or language learning purposes only