» » »

Papa Roach, Broken Home Bass tabs (ver.1)

Artists:  A B C D E F G H I J K L M N O P Q R S T U V W X Y Z # 

Broken Home Bass tabs (ver.1)

Papa Roach Tabs
 Rating:
4/5 (4 votes)
Broken Home lessons Tabs too difficult? Try these video lessons and learn fast
                Bass Tab for a 4 string- Tuning ( E-A-D-G) 


Intro
When he says : Broken home…                       x11
G---------------------------------------------
D------4--------------------------------------
A---4----4------------------------------------
E----------------------------------------------

HEAVY PART               x4  
G-------------------------
D------4------------------
A--------4--5—2--------
E--------------------------

VERSE
G------------------------------
D---44-4---------------------
A-------- 444—5--2--------
E------------------------------


when he says : I just  want to  know the  truth…….
G----------------------------------------
D----------------------------------------
A----------------------------------------
E--22--0--22---0--22—0 -22--------

When he says: Want to know the truth……….
G------------------------------------------------------------------------
D------------------------------------------------------------------------
A----5555--4444---2222--0000-------------------------------------
E------------------------------------- 22--0--22---0--22—0 -22----

G------------------------------------------------------------------------
D------------------------------------------------------------------------
A----5555--4444---2222--0-----------------------------------------
E------------------------------------------------------------------------

Broken home...............
G---------------------------------------------
D------4--------------------------------------
A---4----4------------------------------------
E----------------------------------------------
VERSE
G---------------------------------------        
D--------444---------------------------    
A---------------444-----5--2----------
E---------------------------------------        


G---------------------------------------        
D---------------------------------------        
A---------------------------------------        
E 22—0--22--0--22--0--22---------

G---------------------------------------------------------        
D---------------------------------------------------- ---    
A—5555-4444-2222-0000---------------------------
E ------------------------------22-0-22-0-22-0-22----


                                            X3
G---------------------------------------------        
D----------------------------------------------        
A—5555--4444—2222--0000---------------------
E---------------------------------- 2 2 2 2 2 2 2 2---

G---------------------------------------        
D---------------------------------------        
A------5555-4444-2222-0000--------------
E  ---------------------------------------                                                 

G---------------------------------------        
D---------------------------------------        
A---------------------------------------        
E --22-222-00-022--- 22-20—022--------

G---------------------------------------        
D---------------------------------------        
A---------------------------------------        
E  -22-22-200—022—222-0---------------

                                                                      X4
G--------------------------------------- ------       
D-----4---------------------------------------        
A---4---4---------------------------------------        
E-----------------------------------------------        


G-----------------------------------------------------        
D----44444-2-----------------------------------------        
A--4 -----------4---------------------------------------
E-----------------------------------------------------        

                                                               X4
G---------------------------------------------        
D -----4---------------------------------------        
A -4----4------------------------------------        
E--------------------------------------------        

               

X8
G---------------------------------------        
D---------------------------------------        
A---------------------------------------        
E –222—02----------------------------------- 

After
G---------------------------------------        
D---------------------------------------        
A---------------------------------------        
E  --02-----------------------------------        

                            X4
G---------------------------------------         
D-----4444--------------------------------------
A-----------4444-5555-2222------------------
E---------------------------------------        

                           X7
G---------------------------------------        
D---4-----------------------------------
A-----4-5-2-----------------------------
E---------------------------------------          

End 
G---------------------------------------        
D -----444444444444-----------------------
A---------------------------------------        
E---------------------------------------        

G---------------------------------------        
D---------------------------------------        
A---------------------------------------        
E  2222—2222--2222—2222—2-2-2-2--02
            
Submit corrections

comments powered by Disqus
↑ Back to top | Papa Roach Bass for Broken Home. Lyrics for acoustic guitar and electric guitar. Tablatures and chords are parodies/interpretations of the original songs. You may use it for private study, scholarship, research or language learning purposes only