» » »

Papa Roach, Forever Tabs (ver.1)

Artists:  A B C D E F G H I J K L M N O P Q R S T U V W X Y Z # 

Forever Tabs (ver.1)

Papa Roach Tabs
Rating:
0/5 (0 votes)
Forever lessons Tabs too difficult? Try these video lessons and learn fast
                It´s my first tab, enjoy

Intro
e|-------------------------|-----------|-------------|
B|--11-11-11-10----10--8---|-----------|-------------|
G|--------------10-------9-|-9--7-9-10-|-10--9-10-12-|
D|-------------------------|-----------|-------------|
A|-------------------------|-----------|-------------|
D|-------------------------|-----------|-------------|

Chorus
e|------------------------------------|--------|
B|------------------------------------|--------|
G|--777777--10101010------------------|--------|
D|--777777--10101010--10101010--88888-|-3-2-0--|
A|--555555---8-8-8-8--10101010--88888-|-3-2-0--|
D|--------------------10101010--88888-|-3-2-0--|

In the back (I'm not sure about this part, but to me sounds ok)

e|-------5--------------8----------------3-------------1--------|
B|---------8----8---------11-----11--------6----6--------4----4-|
G|-----7------7------10-------10-------5------5------3------3---|
D|---5-------------8-----------------3-------------1------------|
A|--------------------------------------------------------------|
D|--------------------------------------------------------------|2x

Intro Part
e|-------------------------|-----------|-------------|
B|--11-11-11-10----10--8---|-----------|-------------|
G|--------------10-------9-|-9--7-9-10-|-10--9-10-12-|
D|-------------------------|-----------|-------------|
A|-------------------------|-----------|-------------|
D|-------------------------|-----------|-------------|

Chorus
e|------------------------------------|
B|------------------------------------|
G|--777777--10101010------------------|
D|--777777--10101010--10101010--88888-|
A|--555555---8-8-8-8--10101010--88888-|
D|--------------------10101010--88888-|

Interlude Part "One Last Kiss..." 
e|--------------------------------------------------------|
B|--------------------------------------------------------|
G|------------------55555555-----33333333-----------------|
D|-3-2-00000000-3-2-55555555-3-2-33333333-3-2-55555555-7--| 
A|-3-2-00000000-3-2-33333333-3-2-11111111-3-2-55555555-7--| 
D|-3-2-00000000-3-2----------3-2----------3-2-55555555-7--|2x

Chorus
e|------------------------------------|
B|------------------------------------|
G|--777777--10101010------------------|
D|--777777--10101010--10101010--88888-|
A|--555555---8-8-8-8--10101010--88888-|
D|--------------------10101010--88888-|

Interlude Part Again/With Chorus 

e|----------------------------------------|
B|----------------------------------------|
G|------77777--10101010-------------------|
D|-3-2--77777--10101010--10101010--88888--| 
A|-3-2--55555---8-8-8-8--10101010--88888--| 
D|-3-2-------------------10101010--88888--|

End

e|------------------------------------|--------|
B|------------------------------------|--------|
G|--777777--10101010------------------|--------|
D|--777777--10101010--10101010--88888-|-3-2-0--|
A|--555555---8-8-8-8--10101010--88888-|-3-2-0--|
D|--------------------10101010--88888-|-3-2-0--|

That's it! PAPA ROACH RULES!
            

comments powered by Disqus
↑ Back to top | Papa Roach Tabs for Forever. Lyrics for acoustic guitar and electric guitar. Tablatures and chords are parodies/interpretations of the original songs. You may use it for private study, scholarship, research or language learning purposes only