» » »

Broken Home Bass tabs (ver.2)

Artists:  A B C D E F G H I J K L M N O P Q R S T U V W X Y Z # 

Broken Home Bass tabs (ver.2)

Papa Roach
Rating:
0/5 (0 votes)

Hard to play? Try these video lessons and learn fast.
                Hey, this is my tab to the song Broken Home by Papa Roach. There some differents between 
That's why I wrote that tab, because in my opinion, there are some little mistakes in 
the first version.

Don't forget to rate this tab and have fun with this song! ;)

Intro
G|----------------|
D|-4--------------|
A|4-4-------------| 4x
E|---2------------|
B|----------------|
  SSSSH.

G|----------------|----------------|----------------|----------------|
D|-4--------------|----------------|-4--------------|----------------|
A|4-4-------------|----------------|4-4-------------|----------------|
E|---2------2-2~~~|--2-2~~~--2-2~~~|---2------2-2~~~|--2~~~~~--------|
B|--------2-------|2-------2-------|--------2-------|2---------------|
  SSSSQ   E E Q    E E Q   E E Q    SSSSQ   E E Q    E Q.    H

Main Riff
G|----------------|----------------|----------------|----------------|
D|----------------|----------------|----------------|----------------|
A|----------------|----------------|----------------|----------------|
E|22-2------------|22-2------------|22-2------------|22-2------------|
H|----22-233-355-5|----22-233-355-5|----22-233-355-5|----22-233-35~~~|
  SE SSE SSE SSE S SE SSE SSE SSE S SE SSE SSE SSE S SE SSE SSE SQ

Verse
G|------------------|              G|------------------|
D|------------------|              D|------------------|
A|------------------| 7x     then: A|------------------|
E|22----------------|              E|22----------------|
B|---2h33-3h55-55525|              B|---2h33-3h55-55~~~|
  SE S  E S  E SSSSS                 SE S  E S  E SQ

Pre-Chorus
G|------------------|----------------|
D|------------------|----------------|
A|------------------|5555444422220000| 2x
E|22--022--022-02222|----------------|
B|------------------|----------------|
  SE. SSE. SSE SSSSS SSSSSSSSSSSSSSSS

Pre Verse
G|----------------|----------------|----------------|----------------|
D|----------------|----------------|----------------|----------------|
A|----------------|----------------|----------------|----------------|
E|--2-2~~~--2-2~~~|--2-2~~~--2-2~~~|--2-2~~~--2-2~~~|--2-2~~~--2-2~~~|
B|2-------2-------|2-------2-------|2-------2-------|2-------2-------|
  E E Q   E E Q    E E Q   E E Q    E E Q   E E Q    E E Q   E E Q

Verse
Pre-Chorus

Chorus
G|----------------|----------------|
D|----------------|----------------|
A|----------------|5555444422220000| 4x
E|2222222222222222|----------------|
B|----------------|----------------|
  SSSSSSSSSSSSSSSS SSSSSSSSSSSSSSSS

Breakdown 1
G|----------------|----------------|----------------|----------------|----|
D|----------------|----------------|----------------|----------------|----|
A|----------------|----------------|----------------|----------------|----|
E|22--------22-00-|22--------22-00-|22--------22-00-|22--------22-00-|2---|
B|----------------|----------------|----------------|----------------|----|
  SSH       SE SE  SSH       SE SE  SSH       SE SE  SSH       SE SE  E.SH.

Bridge
G|----------------|               G|----------------|
D|-4--------------|               D|-4--------------|
A|4-4-------------| 3x   then:    A|4-4-----5~~~4~~~|     and then:
E|---2------------|               E|---2------------|
B|----------------|               B|----------------|
  SSSSH.                            SSSSQ   Q   Q

G|----------------|
D|-4--------------|
A|4-4-------------| 4x
E|---2------------|
B|----------------|
  SSSSH.

Breakdown 2
G|----------------|----------------|----------------|----------------|----|
D|----------------|----------------|----------------|----------------|----|
A|----------------|----------------|----------------|----------------|----|
E|2-2--2--2-2--2--|2-2--2--2-2--2--|2-2--2--2-2--2--|2-2--2--2-2--2--|2---|
B|----------------|----------------|----------------|----------------|----|
  E E. E. E E. E.  E E. E. E E. E.  E E. E. E E. E.  E E. E. E E. E.  E.SH.

Final Chorus
G|----------------|
D|----------------|
A|----------------| 12x
E|2222------------|
B|----222233335555|
  SSSSSSSSSSSSSSSS

Outro
G|----------------|----------------|--------|--------|--------|--------|
D|----------------|----------------|--------|--------|--------|--------|
A|----------------|----------------|--------|--------|--------|--------|
E|2222----2222----|2222----2222----|2-------|2-------|2-------|2-------|
B|----------------|----------------|--------|--------|--------|--------|
  SSSSQ   SSSSQ    SSSSQ   SSSSQ    E E H.   E E H.   E E H.   S E. H.


F = Full note
H = Half note
Q = Quarter note
E = Eighth note
S = Sixteenth note
. = makes the note a half longer
\ = Slide up
/ = Slide down
h = Hammer-on
p = Pull-off
b = Bending
X = Mute note
            
Hard to play? Try these video lessons and learn fast. | Correct




comments powered by Disqus
↑ Back to top | Tablatures and chords are parodies/interpretations of the original songs. You may use it for private study, scholarship, research or language learning purposes only