» » »

Papa Roach, Broken Home Tabs (ver.1)

Artists:  A B C D E F G H I J K L M N O P Q R S T U V W X Y Z # 

Broken Home Tabs (ver.1)

Papa Roach Tabs
 Rating:
4/5 (4 votes)
Broken Home lessons Tabs too difficult? Try these video lessons and learn fast
1
                TUNING: drop d (D-A-D-G-B-E)


        * = Echo


     RIFF A: Intro/Main Riff

    |------------------------------------------------|
    |------------------------------------------------|
    |------------------------------------------------|
    |-0-4--4-4-4--0-6--6-6-6--0-7--7-7-7--0-6--6-6-6-|
    |-0-4--4-4-4--0-4--4-4-4--0-4--4-4-4--0-4--4-4-4-|
    |-0-4--4-4-4--0-4--4-4-4--0-4--4-4-4--0-4--4-4-4-|
           * * *       * * *       * * *       * * *

    |--------------------|
    |--------------------|
    |--------------------|
    |-0-7--7-7-7-7-7-7-7-| <------- ends on this
    |-0-4--4-4-4-4-4-4-4-|
    |-0-4--4-4-4-4-4-4-4-|
           * * * * * * *

     RIFF B: Intro 2

    |----------------------------------|
    |----------------------------------|
    |----------------------------------|
    |-0-4-4--0-6-6-6-6-7-7-7-7-9-9-9-9-|
    |-0-4-4--0-4-4-4-4-5-5-5-5-7-7-7-7-|
    |-0-4-4--0-6-6-6-6-7-7-7-7-9-9-9-9-|

     RIFF C: Verse

    |------------------------------|
    |------------------------------|
    |------6-6/7--7-7/9------------| <-------- play first time only
    |-4-4----------------0-2-2-2-2-|  
    |-4-4--4-4/5--5-5/7--0-2-2-2-2-|
    |-4-4----------------0-2-2-2-2-|

    |------------------------------------------------------------|
    |------------------------------------------------------------|
    |------6-6/7--7-7/9------------------6-6/7--7-7/9------------|
    |-7-7----------------0-2-2-2-2--6-6----------------0-2-2-2-2-|
    |-4-4--4-4/5--5-5/7--0-2-2-2-2--4-4--4-4/5--5-5/7--0-2-2-2-2-|
    |-4-4----------------0-2-2-2-2--4-4----------------0-2-2-2-2-|

     RIFF D: Chorus

    |------------------------------------------------------|
    |------------------------------------------------------|
    |---------------------------------7-7-7-7-6-6-6-6-4--2-|
    |-0-4-4--0-4-4--0-4-4--0-4-4-4-4-----------------------|
    |-0-4-4--0-4-4--0-4-4--0-4-4-4-4--5-5-5-5-4-4-4-4-2--0-|
    |-0-4-4--0-4-4--0-4-4--0-4-4-4-4-----------------------|

    |-----------------------------------------------------------------|
    |-----------------------------------------------------------------|
    |---------------------------------7-7-7-7-6-6-6-6-4-4-4-4-2-2-2-2-|
    |-0-4-4--0-4-4--0-4-4--0-4-4-4-4----------------------------------|
    |-0-4-4--0-4-4--0-4-4--0-4-4-4-4--5-5-5-5-4-4-4-4-2-2-2-2-0-0-0-0-|
    |-0-4-4--0-4-4--0-4-4--0-4-4-4-4----------------------------------|

     RIFF E:

    |-------------------------------------------------|
    |-------------------------------------------------|
    |-----------------7-7-7-7-6-6-6-6-4-4-4-4-2-2-2-2-|
    |-4-4-4-4-4-4-4-4---------------------------------|
    |-4-4-4-4-4-4-4-4-5-5-5-5-4-4-4-4-2-2-2-2-0-0-0-0-|
    |-4-4-4-4-4-4-4-4---------------------------------|

     RIFF F:

    |---------------------------------------------------------------------|
    |---------------------------------------------------------------------|
    |---------------------------------------------------------------------|
    |4-4--4-4-2-2-7-7--7-7-2-2-6-6--6-6-2-2-7-7--7-7-2-2-0-4-4-4-4-4-4-4-4|
    |4-4--4-4-2-2-4-4--4-4-2-2-4-4--4-4-2-2-4-4--4-4-2-2-0-4-4-4-4-4-4-4-4|
    |4-4--4-4-2-2-4-4--4-4-2-2-4-4--4-4-2-2-4-4--4-4-2-2-0-4-4-4-4-4-4-4-4|%0
            
Submit corrections

comments powered by Disqus
↑ Back to top | Papa Roach Tabs for Broken Home. Lyrics for acoustic guitar and electric guitar. 1 Tablatures and chords are parodies/interpretations of the original songs. You may use it for private study, scholarship, research or language learning purposes only