» » »

Papa Roach, Broken Home Tabs (ver.2)

Artists:  A B C D E F G H I J K L M N O P Q R S T U V W X Y Z # 

Broken Home Tabs (ver.2)

Papa Roach Tabs
 Rating:
4/5 (4 votes)
Broken Home lessons Tabs too difficult? Try these video lessons and learn fast
1
                Hey again everyone, Its me Its me its that M-I-K-E
Bring it to u live and clear.  This song is awesome as
mess but it doesn't get to much air time. I know the intro
is a stretch, but u gotta do it unless u tune down a step
then the song is kinda harder to play.  Well here it is

D---4-4-4-4--6-6-6-6--7-7-7-7------
A---4-4-4-4--4-4-4-4--4-4-4-4--------Do that a couple times
E---2-2-2-2--2-2-2-2--2-2-2-2---------

G--11-----6-----7-----9-------------------
D--11-x4--6-x4--7-x4--9-x4---------------
A---9-----4-----5-----7------------------
E---9-----4-----5-----7------------------

This part is kinda weird, listen to the music first

G-------------9-------------------------------
D---4---------9---------------------------------
A---4-4h5-5h7-7--------------------------------------
E---2---------7---------------------------------

Then

D--4------------------
A--4-(alot of times---
E--2-------------------
            
Submit corrections

comments powered by Disqus
↑ Back to top | Papa Roach Tabs for Broken Home. Lyrics for acoustic guitar and electric guitar. 1 Tablatures and chords are parodies/interpretations of the original songs. You may use it for private study, scholarship, research or language learning purposes only