» » »

Ozzy Osbourne, Get Me Through Tabs (ver.7)

Artists:  A B C D E F G H I J K L M N O P Q R S T U V W X Y Z # 

Get Me Through Tabs (ver.7)

Ozzy Osbourne Tabs
 Rating:
4/5 (4 votes)
Get Me Through lessons Tabs too difficult? Try these video lessons and learn fast
                OZZY- IT GETS ME THROUGH

.


e------------------------------------------------------------------------    
B------------------------------------------------------------------------
G------------------------------------------------------------------------
D-2-2--2--------2-2------2---2-2-2--2-------2-2--2-----------------------
A-2-2--2--------2-2------2---2-2-2--2-------2-2--2-----------5--7--------
E-0-0--0---2b---0-0--2b--0---0-0-0--0--2b---0-0--0---5--7----------------



2nd part
e-----------------------------
B-----------------------------
G-----------------------------
D-2-2--2----------------------
A-2-2--2----------------------
E-0-0--0---2b-----------------
pm-----------
            
Submit corrections

comments powered by Disqus
↑ Back to top | Ozzy Osbourne Tabs for Get Me Through. Lyrics for acoustic guitar and electric guitar. Tablatures and chords are parodies/interpretations of the original songs. You may use it for private study, scholarship, research or language learning purposes only