>
 >
Gets Me Through

Gets Me Through Guitar Tabs

Ozzy Osbourne - Gets Me Through chords, tabs, tablatures, lyrics

Guitar lessons | Add/correct | Request | Top 50 tabs Artists:  A B C D E F G H I J K L M N O P Q R S T U V W X Y Z 0-9

Gets Me Through Guitar Tabs – Ozzy Osbourne

CD, Sheet music, Poster

Do you like Gets Me Through? Share with your friends now
Bass TabsTabsTabs v2Tabs v3Tabs v4Tabs v5Tabs v6

 

Intro:
 |---------------------------------------------------------|
 |--------------8----------------------------8-------------|
 |---------9-------11-9---------------9----------11--9-----|
 |------9-----9----------9--------10-----10-------------10-|
 |---7-----------------------------------------------------|
 |-----------------------------8---------------------------|Each x2

Main riff:
 |------------------------------------------------------------|
 |------------------------------------------------------------|
 |------------------------------------------------------------|
 |------------------------------------------------0h2---------|
 |2-2--2-4b-2-2-4b-2--2-2-2--2-4b-2--2--2-----0h2-------------|
 |0-0--0-2b-0-0-2b-0--0-0-0--0-2b-0--0--0---------------------|

Verse:
 |------------------------------------------------------------|
 |------------------------------------------------------------|
 |------------------------------------------------------------|
 |------------------------------------------------------------|
 |2-2--2-4b-2-2-4b-2--2-2-2--2-4b-2--2--2-4b------------------|
 |0-0--0-2b-0-0-2b-0--0-0-0--0-2b-0--0--0-2b------------------|
PM- -  - -- - - -- -  - - -  - -- -  -  - --

Interlude:
 |----------------------------------------------|
 |----------------------------------------------|
 |--9-11-12-9--11-12-5-12--11-5-12-11-----------|
 |--x-x--x--x--x--x--x-x---x--x-x--x------------|
 |--7-9--10-7---9-10-3-10---9-3-10--9-----------|
 |----------------------------------------------|

Solo:
 |-------------------|--------------------------|-------------------|
 |-------------------|--------------------------|-------------------|
 |--9~---------------|--11b(12)---11b(12)---11r-|-------9~----------|
 |-------------------|--------------------------|-------------------|
 |-------------------|--------------------------|-------------------|
 |-------------------|--------------------------|-------------------|
                                                                            |------------------------|--------------------------|----------------------|
 |------------------------|--------------------------|----------------------|
 |--14~-------12----11----|--11----12------------10--|--12b(14)---------12r-|
 |------------------------|------------10------------|----------------------|
 |------------------------|--------------------------|----------------------|
 |------------------------|--------------------------|----------------------|
                                                                            
 |------------------------|--------------------------------------------------|
 |------------------------|--------------------------------------------------|
 |--11----12--------------|--------------------------------------------------|
 |------------10----------|--------------------------------------------------|
 |------------------------|--12--11--10--12--11--10--------------------------|
 |------------------------|--------------------------12--11--10--12--11--10--|
                                                           
 |-----------------------------------------------------------------|
 |-----------------------------------------------------------------|
 |--t11p7h9-t11p7h9-t11p7h9-t11p7h9-t11p7h9-t11p7h9-t11p7h9-t11p7h9|
 |-----------------------------------------------------------------|
 |-----------------------------------------------------------------|
 |-----------------------------------------------------------------|
                                                            |------------------------------------------------------------------|
 |------------------------------------------------------------------|
 |--t12p7h9-t12p7h9-t12p7h9-t12p7h9-t12p7h9-t12p7h9-t12p7h9-t12p7h9-|
 |------------------------------------------------------------------|
 |------------------------------------------------------------------|
 |------------------------------------------------------------------|
                                                           
 |------------------------------------------------------------------|
 |------------------------------------------------------------------|
 |--t14p7h9-t14p7h9-t14p7h9-t14p7h9-t14p7h9-t14p7h9-t14p7h9-t14p7h9-|
 |------------------------------------------------------------------|
 |------------------------------------------------------------------|
 |------------------------------------------------------------------|
                                                               
 |--------------------------------------------------------------------------|
 |--------------------------------------------------------------------------|
 |--t11p9-t11p9-t11p9-t16p9-t16p9-t16p9-t14p9-t14p9-t14p9-t14p9-t14p9-t14p9-|
 |--------------------------------------------------------------------------|
 |--------------------------------------------------------------------------|
 |--------------------------------------------------------------------------|
                                                
 |--x------------------|--12------15b(17)--------|
 |--x----15b(17)-------|-----15------------------|
 |--x------------------|--------x----------------|
 |-x-------------------|-------------------------|
 |---------------------|-------------------------|
 |---------------------|-------------------------|
                                                               
 |--15b(17)-15b(16)-15b(17)-15b(16)-15r--12---------|----------------------------------|
 |-------------------------------------------15b(17)|------15p12-----------------------|
 |--------------------------------------------------|------------14b(16)r--12-14b(16)--|
 |--------------------------------------------------|---------------------------------x|
 |--------------------------------------------------|----------------------------------|
 |--------------------------------------------------|----------------------------------|
                                                                     
 |----------------------------|--t12p6h7p6-t12p6h7p6-t12p6h7p6-t12p6h7p6h7-t12|
 |----------------------------|-----------------------------------------------|
 |----------------------------|-----------------------------------------------|
 |----7b(9)r-----b7(9)--7r----|-----------------------------------------------|
 |----------------------------|-----------------------------------------------|
 |----------------------------|-----------------------------------------------|
                                                                   
 |------------------------|-------------------|------------------------------|
 |------------------------|--8b(10)-----------|--5---------4---------3-------|
 |----------7b(9)---7r----|-------------------|--7b(9)-----6b(8)-----5b(7)---|
 |----7p5-----------------|-------------------|------------------------------|
 |------------------------|-------------------|------------------------------|
 |------------------------|-------------------|------------------------------|
                      
 |----9---------------|
 |----12b(14)---------|
 |--------------------|
 |--------------------|
 |--------------------|
 |--------------------|





Comments


Popular Ozzy Osbourne tabs & chords
Believer Bass Tabs
Desire Bass Tabs
Slow Down Bass Tabs
So Tired Chords
Countdown's Begun Tabs
Fool Like You Tabs
Iron Man Live Tabs
Life Wont Wait Tabs
Slow Down Tabs
You Know Part 1 Tabs


Song lyrics



↑ Back to top | Tablatures and chords are parodies/interpretations of the original songs. You may use it for private study, scholarship, research or language learning purposes only
© 2014 AZChords.com Contact us | Privacy policy | DMCA | Add/correct tabs | Request tabs | Top 50 tabs