>
 >
Get Me Through

Get Me Through Guitar Tabs

Ozzy Osbourne - Get Me Through chords, tabs, tablatures, lyrics

Guitar lessons | Add/correct | Request | Top 50 tabs Artists:  A B C D E F G H I J K L M N O P Q R S T U V W X Y Z 0-9

Get Me Through Guitar Tabs – Ozzy Osbourne

CD, Sheet music, Poster

Do you like Get Me Through? Share with your friends now
TabsTabs v2
Ozzy Osbourne - Gets me Through

Gtr I (E A D G B E) - 'Tim Palmer - Piano arr. for Gtr'
Gtr II, III (E A D G B E) - 'Zakk Wylde - Rhythm w/dist'
Gtr IV (E A D G B E) - 'Zakk Wylde - Lead w/dist'

Intro
  Q=74
 4/4
  Gtr I
  S S S T T S S S S S S S T T S S S S
|-------------------------------------|
|-----------8-7---------------8-7-----|
|-----9---------9-------9---------9---|
|---9---9---------9---9---9---------9-|
|-7-------7---------7-------7---------|
|-0-----------------------------------|


  S  S S  S S  S S  S S  S S  T T S S S S
|------------------------------------------|
|-----------8---------------------8-7------|
|------9------11-9---------9----------9----|
|---10---10--------10---10---10---------9--|
|------------------------------------------|
|-8-------------------8---------8----------|


  S S S T T S S S S S S S T T S S S S
|-------------------------------------|
|-----------8-7---------------8-7-----|
|-----9---------9-------9---------9---|
|---9---9---------9---9---9---------9-|
|-7-------7---------7-------7---------|
|-0-----------------------------------|


                                        T      T
  S  S S  T T S  S S  S S S  S S  S  S  S      S
|--------------------------------12----12(24)--------||
|-------------8---------------------11--------11(23)-||
|------9--------11-9----9----------------------------||
|---10---10----------10---8----8---------------------||
|---------------------------10-----------------------||
|-8---------8-----------8----------------------------||


    Gtr II
    S S S S E.    S S S E     S S S S   S S S S E.    S S S S S S S S S
||------------------------------------|----------------------------------||
||o-----------------------------------|---------------------------------o||
||------------------------------------|----------------------------------||
||------------------------------------|-----------------------------0h2--||
||o---------4b4.5-------4b4.5---------|---------4b4.5-----------0h2-----o||
||--0-0---0-2b2.5-0---0-2b2.5---0---0-|-0-0---0-2b2.5-0---0---0----------||
 |-Riff A                                                     end Riff A-|

   Verse
    $
    S S S S E. S S S E S S S S   S S S S E. S S S E S S S S
||-----------------------------|-----------------------------|
||o----------------------------|-----------------------------|
||-----------------------------|-----------------------------|
||-----------------------------|-----------------------------|
||o-2-2---2-2--2---2-2---2---2-|-2-2---2-2--2---2-2---2---2--|
||--0-0---0-3--0---0-3---0---0-|-0-0---0-3--0---0-3---0---0--|


                                                ~
  S S S S E. S S S E S S S S   S S S S E. S S S E S S S S
|----------------------------|----------------------------|
|----------------------------|----------------------------|
|----------------------------|----------------------------|
|----------------------------|----------------------------|
|-2-2---2-2--2---2-2---2---2-|-2-2---2-2--2---2---x-x-x-x-|
|-0-0---0-3--0---0-3---0---0-|-0-0---0-3--0---0-3-x-x-x-x-|
|
|              Gtr III play on 2nd and 3rd times only
| W                            H            Q     S S S S
|----------------------------|----------------------------|
|----------------------------|--------------------0-0-0-0-|
|----------------------------|----------------------------|
|----------------------------|----------------------------|
|----------------------------|----------------------------|
|----------------------------|----------------------------|


  S S S S E.     S S S E   S S S S   S S S S E.     S S S E   S S S S
|----------------------------------|----------------------------------|
|----------------------------------|----------------------------------|
|----------------------------------|----------------------------------|
|----------------------------------|----------------------------------|
|-2-2---2-2------2---2-2-----2---2-|-2-2---2-2------2---2-2-----2---2-|
|-0-0---0-3------0---0-3-----0---0-|-0-0---0-3------0---0-3-----0---0-|
|
| S S S S S  S S S S S S S S S S S   S S S S S  S S S S S S S S S S S
|---------0--0-------------0-0-----|---------0--0-------------0-0-----|
|-0-0-0-0------0-0-0-0-0-0-----0-0-|--------------0-0-------------0-0-|
|----------------------------------|-3-3-3-3----------3-3-3-3---------|
|----------------------------------|----------------------------------|
|----------------------------------|----------------------------------|
|----------------------------------|----------------------------------|


                            To Coda
                                                          ~~~~~~~~
  S S S S E.     S S S E   S S S S   S S S S E.     S S S E   +Q
|----------------------------------|------------------------------------||
|----------------------------------|------------------------------------||
|----------------------------------|------------------------------------||
|----------------------------------|------------------------------------||
|-2-2---2-2------2---2-2-----2---2-|-2-2---2-2------2---2---------------||
|-0-0---0-3------0---0-3-----0---0-|-0-0---0-3------0---0-3---(3)-------||
|
| S S S S S  S S S S S S S S S S S   S S S S S  S S S S S S S  S  S S S
|---------0--0-------------0-0-----|---------0--0--------------0--0-----||
|-0-0-0-0------0-0-0-0-0-0-----0-0-|--------------0-0---------------0-0-||
|----------------------------------|-3-3-3-3----------3-3-3-3-----------||
|----------------------------------|------------------------------------||
|----------------------------------|------------------------------------||
|----------------------------------|------------------------------------||


 Interlude
 Riff A


  S S S S E.    S S S E     S S S S   S S S S E.    S S S S S S S S S
|-----------------------------------|-----------------------------------||
|-----------------------------------|----------------------------------o||
|-----------------------------------|-----------------------------------||
|-----------------------------------|-----------------------------0h2---||
|---------4b4.5-------4b4.5---------|---------4b4.5-----------0h2------o||
|-0-0---0-2b2.5-0---0-2b2.5---0---0-|-0-0---0-2b2.5-0---0---0-----------||


 Bridge
  Gtr II
  H       Q   Q     H       Q   Q     a H       Q   Q     a H       Q   Q
|-----------------|-----------------|-------------------|---------------------|
|-5-------7---8---|-5-------7---8---|-----------7---8---|-----------7---8-----|
|-----------------|-----------------|-3s5---------------|-3s5-----------------|
|-2-------4---5---|-2-------4---5---|-----------4---5---|-----------4---5-----|
|-----------------|-----------------|-1s3---------------|-1s3-----------------|
|-----------------|-----------------|-------------------|---------------------|
|-Riff B                 end Riff B-|
|
| Gtr III
| E E E E E E E E   E E E E E E E E     E E E E E E E E     E E E E E E E E
|-0---0---0---0---|-0---0---0---0---|-------------------|---------------------|
|---0---0---0---0-|---0---0---0---0-|---5---5---5---5---|---5---5---5---5-----|
|-----------------|-----------------|-----3---3---3---3-|-----3---3---3---3---|
|-----------------|-----------------|-------------------|---------------------|
|-----------------|-----------------|-------------------|---------------------|
|-----------------|-----------------|-------------------|---------------------|
|-Riff B1               end Riff B1-|

Riff B + B1


  a H       Q   Q     H               H
|-------------------|---------------------------------||
|-----------7---8---|---------------------------------||
|-3s5---------------|-4---------------7---------------||
|-----------4---5---|---------------------------------||
|-1s3---------------|-2---------------5---------------||
|-------------------|---------------------------------||
|
|   E E E E E E E E   S S S S S S S S S S S S S S S S
|-------------------|---------------------------------||
|---5---5---5---5---|---------------------------------||
|-----3---3---3---3-|-4-4-4-4-4-4-4-4-7-7-7-7-7-7-7-7-||
|-------------------|-4-4-4-4-4-4-4-4-7-7-7-7-7-7-7-7-||
|-------------------|-2-2-2-2-2-2-2-2-5-5-5-5-5-5-5-5-||
|-------------------|---------------------------------||


 Guitar Solo
  Gtr IV
  ~
  H                S      +E.       a      +E     S  +S
|--------------------------------------------------------|
|--------------------------------------------------------|
|-9---------------11b12==(11)r-----11b12==(11)---11r(11)-|
|--------------------------------------------------------|
|--------------------------------------------------------|
|--------------------------------------------------------|
|
| Gtrs II, III
|   PM|     PM|            PM--|               PM|
| S S S S S S S S  S       S   S S          S  S  S   S
|--------------------------------------------------------|
|--------------------------------------------------------|
|-9-----9-9-----9--9-------------9----------9---------9--|
|-9-----9-9-----9--9-------------9----------9---------9--|
|-7-----7-7-----7--7-------------7----------7---------7--|
|---0-0-----0-0------------0---0---------------0--0------|
|-Rhy Fig 1

  ~~~~~~~~~~~~~~~~~~~~
  H                 Q           E     E
|-------------------------------------------|
|-------------------------------------------|
|-9---------------/14----------12----11-----|
|-------------------------------------------|
|-------------------------------------------|
|-------------------------------------------|
|
|   PM|     PM|
| S S S S S S S S   S  S  S  S  S  S  S  S
|-------------------------------------------|
|-------------------------------------------|
|-9-----9-9-----9--12-12-12-12-12-12-12-12--|
|-9-----9-9-----9--12-12-12-12-12-12-12-12--|
|-7-----7-7-----7--10-10-10-10-10-10-10-10--|
|---0-0-----0-0-----------------------------|
                              end Rhy Fig 1-|

           ~~~~~~~                ~~~~
   E    S  S  +E.      S  a      +Q         S  S  +E
|-------------------------------------------------------|
|-------------------------------------------------------|
|-11---12----------------12b14==(12)-------12-12r(12)---|
|---------10-(10)-----10--------------------------------|
|-------------------------------------------------------|
|-------------------------------------------------------|
|
|    PM|          PM|                PM|       PM|
|  S S  S  S   S  S S  S          S  S S S  S  S   S  S
|-------------------------------------------------------|
|-------------------------------------------------------|
|--5-------5---5-------5----------5------5--5---------5-|
|--5-------5---5-------5----------5------5--5---------5-|
|--3-3--3--3---3--3-3--3----------3--3-3-3--3--3---3--3-|
|-------------------------------------------------------|


           ~~~~~~~       PM------------------------------------------|
                         |---------6----------|  |---------6----------|
   E    S  S  +Q         S  S     S  S  S     S  S  S     S  S  S     S
|-------------------------------------------------------------------------|
|-------------------------------------------------------------------------|
|-11---12-----------------------------------------------------------------|
|---------10-(10)---------------------------------------------------------|
|-----------------------12-11----10-12-11----10---------------------------|
|-----------------------------------------------12-11----10-12-11----10---|
|
|    PM|          PM|
|  S S  S  S   S  S S S  S     S     S     S     S     S     S     S
|-------------------------------------------------------------------------|
|-------------------------------------------------------------------------|
|--5-------5---5------5-12----12----12----12----12----12----12----12------|
|--5-------5---5------5-12----12----12----12----12----12----12----12------|
|--3-3--3--3---3--3-3-3-10----10----10----10----10----10----10----10------|
|-------------------------------------------------------------------------|


w/Rhy Fig 1
                      T    T        T      T    T        T    T    T    T      T    T
                      |---------------14:8-----------------|  |----------12:8-----------|
  H                   T T  T T   T  T T    T T  T T   T  T T  T T  T T  T T T  T T  T T T
|-------------------------------------------------------------------------------------------|
|-------------------------------------------------------------------------------------------|
|-7tr9---------------11p7-11p7h==9-11p7---11p7-11p9p==7-11p9-12p7-12p9-12p7h9-12p7-12p9p7---|
|-------------------------------------------------------------------------------------------|
|-------------------------------------------------------------------------------------------|
|-------------------------------------------------------------------------------------------|


                      T    T       T       T    T         T         T         T    T
                      |-------------11:8---------------|  |-------------11:8--------------|
  H                   T T  T    T  T T     T T  T    T T  T T T     T T T     T T  T    T T
|-------------------------------------------------------------------------------------------|
|-7tr9---------------14p9-14p===7-14p9----14p9-14p===7h9-12p7h9----12p7h9----11p7-10p===9p7-|
|-------------------------------------------------------------------------------------------|
|-------------------------------------------------------------------------------------------|
|-------------------------------------------------------------------------------------------|
|-------------------------------------------------------------------------------------------|-|


               ~~~~~~~~~~~~~~~~~~~
  E    a      +Q.            +E      T  T T  T       +Q
|-----------------------------------12------15pb17==(15)r-------|
|-----15b17==(15)-----------(15)r------15-----------------------|
|-----------------------------------------x---------------------|
|---------------------------------------------------------------|
|---------------------------------------------------------------|
|---------------------------------------------------------------|
|
|   PM-------|        PM|         PM|                     PM|
| S S          S  S S S S S   S   S  S    S           S   S S S
|---------------------------------------------------------------|
|---------------------------------------------------------------|
|-5---------------5-5-----5---5-----------5-----------5-------5-|
|-5---------------5-5-----5---5-----------5-----------5-------5-|
|-3-3----------3--3-3-3-3-3---3---3--3----3-----------3---3-3-3-|
|---------------------------------------------------------------|


                                                      ~~~~~
   S      S      S      S      S      +S   S  S      +E      T  T  a      +S   +T   T  a      +S   E
|-15pb17-15pb16-15pb17-15pb16-15pb17r(15)-12-------------------------------------------------------------|
|--------------------------------------------15b17==(15)r---15p12----------------------------------------|
|-----------------------------------------------------------------14b16==(14)r(14)p12-14b16==(14)r-------|
|--------------------------------------------------------------------------------------------------------|
|--------------------------------------------------------------------------------------------------------|
|--------------------------------------------------------------------------------------------------x\----|
|
|         PM----|                      PM-|
|  S      S      S      S      S       S   S  S       S   S  S             S    S              S   S  S
|--------------------------------------------------------------------------------------------------------|
|--------------------------------------------------------------------------------------------------------|
|--5--------------------5------5--------------5-------4---4--4-------------4----7--------------7---7--7--|
|--5--------------------5------5--------------5-------4---4--4-------------4----7--------------7---7--7--|
|--3------3------3------3------3-------3---3--3-------2---2--2-------------2----5--------------5---5--5--|
|--------------------------------------------------------------------------------------------------------|


                              T        T        T        T        T
                          |----------12:8-----------| |-----6-----|
  S S    +E    +E    +E   T   T T T T  T T T T  T T T T  T T T T  T E
|-------------------------7--12p7p6h7-12p7p6h7-12p7p6h7-12p7p6h7-12---|
|---------------------------------------------------------------------|
|---------------------------------------------------------------------|
|---7b8==(7)---(7)r==(7)----------------------------------------------|
|---------------------------------------------------------------------|
|---------------------------------------------------------------------|
|
| E       S  S +S  S  E  +E              Q.
|---------------------------------------------------------------------|
|---------------------------------------------------------------------|
|---------------------------------------------------------------------|
|-7----------6-(6)----5--(5)-------------5----------------------------|
|-7----------6-(6)----5--(5)-------------5----------------------------|
|-5-------0--4-(4)-0--3--(3)-------------3----------------------------|


                              ~~~~~~~~~~~
  |-3--|
  S  S S a    +E    +E  +E  S E.     +Q
|---------------------------8-8------(8)-------|
|--------7b9==(7)---(7)r(7)--------------------|
|----7p5---------------------------------------|
|----------------------------------------------|
|----------------------------------------------|
|----------------------------------------------|
|
|                           PM-------------|
| E.              S +E   E  S S  S S  S  S E
|----------------------------------------------|
|----------------------------------------------|
|----------------------------------------------|
|-7---------------6-(6)--5---------------------|
|-7---------------6-(6)--5---------------------|
|-5---------------4-(4)--3--3-3--3-3--3--3-3---|


                                                           5/4
                                                 ~~~~~~~~~~~~~~~~~
  a     E.  a     S  +E   a     E    S   a       E.  +Q      +W           Q
|------------------------------------------------9---(9)--|--(9)--------------||
|-------5---------4--(4)--------3-------12b14==(12)-(12)--|-(12)r-------------||
|-7b9==(7)r-6b8==(6)-(6)r-5b7==(5)r-----------------------|-------------------||
|---------------------------------------------------------|-------------------||
|---------------------------------------------------------|-------------------||
|---------------------------------------------------------|---------------x\--||
|
|       E.        S  +E         E   +S           E.  +Q      +W          +Q
|---------------------------------------------------------|-------------------||
|---------------------------------------------------------|-------------------||
|---------------------------------------------------------|-------------------||
|-------7---------6--(6)--------5---(5)----------4---(4)--|--(4)---------(4)--||
|-------7---------6--(6)--------5---(5)----------4---(4)--|--(4)---------(4)--||
|-------5---------4--(4)--------3---(3)----------2---(2)--|--(2)---------(2)--||


Riff A x2 -> D.S. al Coda


  &
  Gtr II
  S S S S E. S S S E S S S S   Q.   E +Q   Q
|----------------------------|----------------||
|----------------------------|----------------||
|----------------------------|-4----7-(7)--7--||
|----------------------------|-4----7-(7)--7--||
|-2-2---2-2--2---2-2---2---2-|-2----5-(5)--5--||
|-0-0---0-3--0---0-3---0---0-|----------------||


   Outro
   Riff A x4


    Gtr IV
    S S S S  E.    S S S  E     S S S S
||--------------------------------------|
||o-------------------------------------|
||----------12-----------12-------------|
||--x-x---x-12-----x---x-12-------x---x-|
||o-x-x---x--------x---x----------x---x-|
||--------------------------------------|
|
|   Gtr II
|   S S S S  E.    S S S  E     S S S S
||--------------------------------------|
||o-------------------------------------|
||--------------------------------------|
||--------------------------------------|
||o----------4b4.5--------4b4.5---------|
||--0-0---0--2b2.5-0---0--2b2.5---0---0-|


   E.    S S S  E     S S S S S S S S
|---------------------------------------||
|--------------------------------------o||
|-12-----------12-----------------------||
|-12-----x---x-12-------x---x-x-x-x-x---||
|--------x---x----------x---x-x-x-x-x--o||
|---------------------------------------||
|
|  E.    S S S  E     S S S S S S S S
|---------------------------------------||
|--------------------------------------o||
|---------------------------------------||
|---------------------------------0h2---||
|--4b4.5--------4b4.5---------0h2------o||
|--2b2.5-0---0--2b2.5---0---0-----------||

w/Riff A to end
             ~~~~~                       ~~~~~
   E        +E      S      S  S  S      +Q            S  S  S  S
|--------------------------------------------------------------------|
|------------------12-----15-12----------------------12-15-12--------|
|-14b16====(14)r----------------14b16==(14)r------------------14b15==|
|--------------------------------------------------------------------|
|--------------------------------------------------------------------|
|--------------------------------------------------------------------|


                                           ~~~~~~~~~
   +E         +E      S      S  S  a      +S   +Q.            S S
|---------------------------12------------------------------------|
|--------------------12--------12-15b17==(15)-(15)r---------------|
|-(14)b16====(14)r------------------------------------------------|
|-------------------------------------------------------------x-x-|
|-----------------------------------------------------------------|
|-----------------------------------------------------------------|


             ~~~~~                       ~~~~~
   E        +E      S      S  S  S      +Q            S  S  S  S
|--------------------------------------------------------------------|
|------------------12-----15-12----------------------12-15-12--------|
|-14b16====(14)r----------------14b16==(14)r------------------14b16==|
|--------------------------------------------------------------------|
|--------------------------------------------------------------------|
|--------------------------------------------------------------------|


    ~~~~~                                                  ~~~
   +Q          S      S  S  a      +S   +E         +E      Q
|--------------------12----15b17==(15)-(15)b18====(15)r---15-------|
|-------------12--------12-----------------------------------------|
|-(14)r------------------------------------------------------------|
|------------------------------------------------------------------|
|------------------------------------------------------------------|
|------------------------------------------------------------------|


           ~~~~~~~~~~~~~~~~~                       ~~~~~~~~
                             |--3--|                                |--3--|
   a      +Q         +S      T  T  T  a      +S   +S   +E.          T  T  T  S      +E.
|---------------------------12-------------------------------------12-----------------------|
|-15b17==(15)-------(15)r------15p12-15b16==(15)r(15)-(15)------------15p12-15pb16r(15)-----|
|-------------------------------------------------------------------------------------------|
|-------------------------------------------------------------------------------------------|
|-------------------------------------------------------------------------------------------|
|-------------------------------------------------------------------------------------------|


   |--3--|                                                                |-----------6------------|                                                        |--3--|
   T  T  T  a     +S   +S   T  T  T   a     +S    T  T  T  a     +T    T  T  T  a      +T    T  T  T  a      +T    T  T  T  a      +T    T  T  a      +T    T  T  T  a      +T    T
|-12-----------------------12--------------------12-------------------12--------------------12--------------------12---------------------------------------12----12--------------12-|
|----15-12-15b17=(15)r(15)----15p12--15b17=(15)r----15p12-15b17=(15)r----15p12-15b17==(15)r----15p12-15b17==(15)r----15-12-15b17==(15)r-15-12-15b17==(15)r----15----15b17==(15)r----|
|-----------------------------------------------------------------------------------------------------------------------------------------------------------------------------------|
|-----------------------------------------------------------------------------------------------------------------------------------------------------------------------------------|
|-----------------------------------------------------------------------------------------------------------------------------------------------------------------------------------|
|-----------------------------------------------------------------------------------------------------------------------------------------------------------------------------------|

                                                             ~~~~~
   |------------10:8--------------|                                     |---------------12:8-----------------|  |------6-------|
   T  T  T    T  T  T  T  T    T  T  T      T  T  T  a      +S    T  T  T  T  T  T  T  T  T      T  T  T  T  T  T  T  T  T  T  T  T  T  +S
|-------15---12-------15p12---17p12-15p====12--------------------12-----------------------------12----------12-------12----------12---------|
|-15p12---------15p12-------------------------15p12-15b17==(15)r----15p12----12-16-12----12--------12----12----12-12----12----12----12-(12)-|
|-------------------------------------------------------------------------14----------15--------------15-------------------15---------------|
|-------------------------------------------------------------------------------------------------------------------------------------------|
|-------------------------------------------------------------------------------------------------------------------------------------------|
|-------------------------------------------------------------------------------------------------------------------------------------------|

                                                                                 ~~~~~
                                                   |--------6---------|
   S  a      +T   +T   E    a      +E      +S   S  S  S    S  S  S    S  a      +Q
|-------------------------------------------------14---------------------------------------|
|-12-----------------------15b18==(15)r===(15)p12----13------15----------------------------|
|----14b16==(14)r(14)p12----------------------------------12----13------14b16==(14)r-------|
|--------------------------------------------------------------------12--------------------|
|------------------------------------------------------------------------------------------|
|------------------------------------------------------------------------------------------|


   TP       TP       TP         TP
   Q        Q        Q          Q
|-16-------16-------16---------16---------*|
|-15-------15-------15---------15---------*|
|-----------------------------------------*|
|-----------------------------------------*|
|-----------------------------------------*|
|-----------------------------------------*|





Comments


Popular Ozzy Osbourne tabs & chords
Bark At The Moon 1 Bass Tabs
Flying High Again 3 Bass Tabs
Slow Down Bass Tabs
Sunshine Of Your Love Bass Tabs
Goodbye To Romance 1 Chords
Bark At The Moon Drum Tabs
Crazy Train 3 Tabs
Crazy Train Live 1 Tabs
Iron Man 1 Tabs
Killer Of Giants 1 Tabs


Song lyrics



↑ Back to top | Tablatures and chords are parodies/interpretations of the original songs. You may use it for private study, scholarship, research or language learning purposes only
© 2014 AZChords.com Contact us | Privacy policy | DMCA | Add/correct tabs | Request tabs | Top 50 tabs