» » »

Crazy Train Tabs (ver.1)

Artists:  A B C D E F G H I J K L M N O P Q R S T U V W X Y Z # 

Crazy Train Tabs (ver.1)

Ozzy Osbourne
Rating:
0/5 (0 votes)

Hard to play? Try these video lessons and learn fast.
                PROPS GO TO: tom


*=palm mute
h=hammer on
p=pull off
t=tap
v=vibrato
/=slide
^=bend

intro
e----------------------
b--------2--2----------
g--------2--2----------
d--4--4--2--2----------
a--4--4----------------
E--2--2--------4--2----

riff 1
e---------------------------------------------------
b---------------------------------------------------
g---------------------------------------------------
d---------------------------------------------------
a--------4-----5-----4-----2-----------2------------
E--2--2-----2-----2-----2-----5--4--5-----5--4--0---

riff 2
e----------------------------------
b--------------------------2-------
g--------------------------2-------
d--------------------------2--7----
a--------4-----5-----4--------5----
E--2--2-----2-----2-----2----------

riff 3
e-------------------------------------------------------------------------------4p2------
b--------2--------------------------2-------------2--------------------------2-----4p2---
g--------2--------------------------2-------------2--------------------------2--------4p2
d--------2--------9--------7--------2-------------2--------9--------7--------2-----------
a--0--0-----0--0--7--0--0--5--0--0-----2/3--0--0-----0--0--7--0--0--5--0--0--------------
E----------------------------------------------------------------------------------------

riff 4
e----------------------------------------------------------------------------------------
b----------------------------------------------------------------------------------------
g----------------------------------------------------------------------------------------
d--4--4--7--5-5--4-4--7--5--5/6/7--5--3--4--3--4--3--4-----------------------------------
a--2--2--5--3-3--2-2--5--3--3/4/5--3--1--2--1--2--1--2-----------------------------------
E----3-------4----3----------------------------------------------------------------------


solo
e--14p7h10--14p7h10--14p7h10--14p7h10--15p7h10--15p7h10--15p7h10--15p7h10----------------
b----------------------------------------------------------------------------------------
g----------------------------------------------------------------------------------------
d----------------------------------------------------------------------------------------
a----------------------------------------------------------------------------------------
E----------------------------------------------------------------------------------------


e--12p7h10--12p7h10--12p7h10--12p7h10--10p5h7--10p5h7--10p5h7--10p5h7-13^--13--13^-------
b---------------------------------------------------------------------13^------13^-------
g----------------------------------------------------------------------------------------
d----------------------------------------------------------------------------------------
a----------------------------------------------------------------------------------------
E----------------------------------------------------------------------------------------


e--17--16--14--14v--14--16--17--17^--17p16p14--17p16p14--17p16p14------------------------
b-----------------------------------------------------------------16p14--16p14-----------
g------------------------------------------------------------------------------16--14----
d----------------------------------------------------------------------------------------
a----------------------------------------------------------------------------------------
E----------------------------------------------------------------------------------------


e---------------------------------------------------------14t17--14t17--14t17--14t17-----
b--14t16--14t16--14t16--14t16--12t17--12t17--12t17--12t17--------------------------------
g----------------------------------------------------------------------------------------
d----------------------------------------------------------------------------------------
a----------------------------------------------------------------------------------------
E----------------------------------------------------------------------------------------


e--17t21--17t21--17t21--17t21--13^-13-13^--10p9p7--10p9p7--10p9p7--7h9h10p9p7--12v-------
b------------------------------13^----13^------------------------------------------------
g----------------------------------------------------------------------------------------
d----------------------------------------------------------------------------------------
a----------------------------------------------------------------------------------------
E----------------------------------------------------------------------------------------


e----------------------------------------------------------------------------------------
b-----------------------------21--19^----------------------------------------------------
g--------------------14h16p14------------------------------------------------------------
d-----------14h16h17---------------------------------------------------------------------
a--14h16h17------------------------------------------------------------------------------
E----------------------------------------------------------------------------------------


song order
intro x3
riff1 x3
riff2 x1
riff3 x5
riff4 x2
intro x4
solo  x1
riff1 x3
riff2 x1
riff3 x5
riff4 x2
intro x7
            
Hard to play? Try these video lessons and learn fast. | Correct




comments powered by Disqus
↑ Back to top | Tablatures and chords are parodies/interpretations of the original songs. You may use it for private study, scholarship, research or language learning purposes only