>
 >
Get Me Through 1

Get Me Through 1 Guitar Tabs

Ozzy Osbourne - Get Me Through 1 chords, tabs, tablatures, lyrics

Guitar lessons | Add/correct | Request | Top 50 tabs Artists:  A B C D E F G H I J K L M N O P Q R S T U V W X Y Z 0-9

Get Me Through 1 Guitar Tabs – Ozzy Osbourne

CD, Sheet music, Poster

Do you like Get Me Through 1? Share with your friends now
TabsTabs v2
Intro:

Purty piano intro here... For an added touch, the chords are:

Em, C, Em, C, C7

Which then breaks into this:

E-6\\\---

Hit the slide, then play this two times (2X).  All the hits are there but 
you'll have to listen to the intro yourself for the exact rhythm.

(Main Riff)

e-----------------------------------------------------------
b-----------------------------------------------------------
g-----------------------------------------------------------
d----------------------------------------------------------- X2
a--2-2--2-4b--2-2-4b~~--2--2-2-2--2-4b--2--2--2-----5h7-----
E--0-0--0-2b--0-0-2b~~--0--0-0-0--0-2b--0--0--0-5h7---------

Verse:

A slightly modified version of the intro riff...back off
just a lil...

e-----------------------------------------------------------
b-----------------------------------------------------------
g-----------------------------------------------------------
d-----------------------------------------------------------
a--2-2--2-4b--2-2-4b~~--2--2-2-2--2-4b--2--2-4b--2--2-------
E--0-0--0-2b--0-0-2b~~--0--0-0-0--0-2b--0--0-2b--0--0-------
Light PM throughout...
e-----------------------------------------------------------
b-----------------------------------------------------------
g-----------------------------------------------------------
d-----------------------------------------------------------
a--2-2--2-4b--2-2-4b~~--2--2-2-2--2-4b--2--2-4b~~-X-X-X-X---
E--0-0--0-2b--0-0-2b~~--0--0-0-0--0-2b--0--0-2b~~-X-X-X-X---

e-----------------------------------------------------------
b-----------------------------------------------------------
g-----------------------------------------------------------
d-----------------------------------------------------------
a--2-2--2-4b--2-2-4b~~--2--2-2-2--2-4b--2--2-4b--2--2-------
E--0-0--0-2b--0-0-2b~~--0--0-0-0--0-2b--0--0-2b--0--0-------

e-----------------------------------------------------------
b-----------------------------------------------------------
g-----------------------------------------------------------
d-----------------------------------------------------------
a--2-2--2-4b--2-2-4b~~--2--2-2-2--2-4b--2--2-4b--2-2--------
E--0-0--0-2b--0-0-2b~~--0--0-0-0--0-2b--0--0-2b--0-0-3bb~~~-

Chorus:

A slightly heavier version of the intro riff.

Verse 2:

Same as Verse 1, now w/ an organ riff.

Chorus:

Same as before (w/ organ)

Pre-Solo:

e-----------------------------------------------------------
b-----------------------------------------------------------
g--9---11-12--9---11-12--5---12--11-5---12--11--------------
d-----------------------------------------------------------
a--7---9--10--7---9--10--3---10--9--3---10--9---------------
E-----------------------------------------------------------

e-----------------------------------------------------------
b-----------------------------------------------------------
g--9---11-12--9---11-12--5---12--11-4-/-7-------------------
d-----------------------------------------------------------
a--7---9--10--7---9--10--3---10--9--2-/-5-------------------
E-----------------------------------------------------------

Solo:

e-----------------------------------------------------------
b---------------hold----------------------------------------
g-9v~~~11b12~~11b12-12r11-9v~~--/14~~12\11-11h12------------
d------------------------------------------------10v~~------
a-----------------------------------------------------------
E-----------------------------------------------------------

e-----------------------------------------------------------
b-----------------------------------------------------------
g-----12b14~~12b13r12--11-12--------------------------------
d--10------------------------10v~~---Continue below---------
a-----------------------------------------------------------
E-----------------------------------------------------------

Im not sure about this run, but it sounds ok if your
playing this by yourself...anyway, its optional.
e-----------------------------------------------------------
b-----------------------------------------------------------
g-------sextuplet-------------------------------------------
d---/-----------------\-----sextupltet----------------------
a--/-12-11-10-12-11-10-\-/--------------\-------------------
E-------------------------12-11-10-9-8-7--------------------
PM - - - - - - - - - - - - - - - - - - -


w/ open wah (of course, triple everything written)
e-----------------------------------------------------------
b-----------------------------------------------------------
g-t9-7-4-7-9-7-4-7-9-7-4-7-9-7-4-7-11-7-4-7-11-7-4-7--------
d-----------------------------------------------------------
a-----------------------------------------------------------
E-----------------------------------------------------------

e-----------------------------------------------------------
b-----------------------------------------------------------
g-12-7-4-7-12-7-4-7-t9-7-4-7-9-7-4-7-9-7-4-7-9-7-4-7--------
d-----------------------------------------------------------
a-----------------------------------------------------------
E-----------------------------------------------------------

e-----------------------------------------------------------
b-----------------------------------------------17v~~-------
g-14-7-4-7-14-7-4-7-12-7-4-7-12\-7-4-end taps---------------
d-----------------------------------------------------------
a-----------------------------------------------------------
E-----------------------------------------------------------

e-------15b17~~-15-17-15-pb17r15--12------------------------
b--17p15-----------------------------15b17-15-12------------
g-----------------------------------------------14b16r14p12-
d-----------------------------------------------------------
a-----------------------------------------------------------
E-----------------------------------------------------------

e-----------------------------------------------------------
b---------t17-12-11-12-17-12-11-12-17-12-11-12-17-12-11-12--
g-----------------------------------------------------------
d-7b-8r7----------------------------------------------------
a-----------------------------------------------------------
E-----------------------------------------------------------
                                              w/ whammy
e---------------------------------8-------------------------
b------8b10v~~~----5----4----3----11b13v~~~~H---------------
g-7b9~~------------7b9--6b8--5b7---------------*********----
d----------------------------------------------*--end--*----
a----------------------------------------------*---of--*----
E----------------------------------------------*--solo-*----

Main Riff X 2

Now, repeat the 1st verse.....

At the end hit this fill:

e-----------
b-----------
g--4----7---
d--4----7---
a--2----5---
E-----------

Outro:

Main Riff X4

"I'm just trying....."

Then:
      (whilist a wah plays the outro solo)
e-------------------------------------------------------
b-------------------------------------------------------
g-------------------------------------------------------
d-------------------------------------------------------- X2
a--2-2--2-4b--2-2-4b--2-2-4b--2-2-4b--2-2-----5h7-------
E--0-0--0-2b--0-0-2b~~0-0-2b--0-0-2b--0-0-5h7-----------

Continue with the main riff & fade out w/ the outro solo,
Which im a bit too lazy to tab out.

Key:  h - hammer on
      b - bend
      r - release bend
     pb - pre-bend
      / - slide up               Simple symbols......
      \ - slide down
      v - vibrato
      t - tapping
      X - scrape
      ~ - let ring





Comments


Popular Ozzy Osbourne tabs & chords
Ghost Behind My Eyes Bass Tabs
Youre No Different Bass Tabs
Almighty Dollar Tabs
Crazy Train 5 Tabs
Gets Me Through Yeh Tabs
Junkie 1 Tabs
Mr Crowley Live Tabs
My Jekyll Doesn't Hide Tabs
Tatooed Dancer Tabs
Running Out Of Time Ukulele


Song lyrics



↑ Back to top | Tablatures and chords are parodies/interpretations of the original songs. You may use it for private study, scholarship, research or language learning purposes only
© 2014 AZChords.com Contact us | Privacy policy | DMCA | Add/correct tabs | Request tabs | Top 50 tabs