» » »

Ozzy Osbourne, Dreamer Tabs (ver.1)

Artists:  A B C D E F G H I J K L M N O P Q R S T U V W X Y Z # 

Dreamer Tabs (ver.1)

Ozzy Osbourne Tabs
Rating:
0/5 (0 votes)
Dreamer lessons Tabs too difficult? Try these video lessons and learn fast
                Tuned down one half step. I think this is right cause I saw it played this way in the video!

E-----------------------------------------------------------------------------------|
B------------------------------------------------------------12---------------------|
G------------------------------------------------------12-14------------------------|
D-----12-14-14b16r14-12-14-------------------12-14-/16----------14b16~~-14b16r14-12-|
A-/12----------------------12/14~~~\\0---/12----------------------------------------|
E-----------------------------------------------------------------------------------|

E-----------13/14-15-17-19-14---------------------------------------------------|
B-----15-17----------------17b19-17b1917b19-17b19r17-14^12---12b14~--12b14..r12-|
G-/14-----------------------------------------------------14--------------------|
D-------------------------------------------------------------------------------|
A-------------------------------------------------------------------------------|
E-------------------------------------------------------------------------------|

E-------------------------------------10-12-12b14~~~~~~~~~~~~~~~~~~14\-|
B----------------------------12-14-14----------------------------------|
G-14~~~-------------11-12-14-------------------------------------------|
D----------11-12-14----------------------------------------------------|
A-------14-------------------------------------------------------------|
E----------------------------------------------------------------------|
            

comments powered by Disqus
↑ Back to top | Ozzy Osbourne Tabs for Dreamer. Lyrics for acoustic guitar and electric guitar. Tablatures and chords are parodies/interpretations of the original songs. You may use it for private study, scholarship, research or language learning purposes only