» » »

Ozzy Osbourne, I Just Want You Tabs (ver.1)

Artists:  A B C D E F G H I J K L M N O P Q R S T U V W X Y Z # 

I Just Want You Tabs (ver.1)

Ozzy Osbourne Tabs
 Rating:
4/5 (4 votes)
I Just Want You lessons Tabs too difficult? Try these video lessons and learn fast
                Ozzy Osbourne
Taken from the 1995 album "Ozzmosis"
Publishers:EMI Virgin Music Inc. (ASCAP)/EMI Virgin Music Ltd./Monowise Ltd./Almo Music Corp./Testatyme Music (ASCAP)
Musicians: Ozzy Osbourne (Vocals), Zakk Wylde (Guitar), Geezer Butler (Bass), and Rick Wakeman (keyboards)
Produced by Michael Beinhorn
Mastered by Vic Anesini at Sony Music Studios

....now that we got that out of the way, here's the song....

This is the main riff. You will use it alot. Play it over and over again.
-----------------0-------------
---3-----2---------0---------3-
-----4-----2---------0-----4---
-------2-----2-----------4-----
-2---------------------2-------
---------------0---------------

Here are the parts that you WILL NOT play the main riff on:

I don't ask much....
-0------------------------------------------
-0-0-3--------------------------------------
-0-----4-4----2-2-2-------------------------
-2-----4-4----2-2-2----2-2------------------
-2-----2-2----0-0-0----2-2---4^-(vibrato)-0-
-0---------3^-------2^-0-0-0----------------

I'm sick and tired....
---0---0---0---0---0---0---0---0-1-0---0---0---0---0---
---0---0---0---0---0-1-0-2-0-4-0---0-4-0-2-0-1-0---0---
-------------2---4-------------------------------4---2-
-2---4---5---------------------------------------------
-------------------------------------------------------
-------------------------------------------------------

SOLO:
-----------------------------------------------------/1-5-/6-10/14-14-12-9^-6-12^-
------------------------------------------2(vibrato)------------------------------
-----------------------------2/4(vibrato)-----------------------------------------
--------------0-2(vibrato)/4------------------------------------------------------
-0h2(vibrato)---------------------------------------------------------------------

-12^-12^-12^-10-6(vibrato)-12^-^-^-^-^-^12-10-6-12-10-12^10-6----------------------
--------------------------------------------------------------2h4------------------

----------------5-7----7--------------------10^-7-0-7-------------------------------
-4^-^4p2p-4^-4^-----4^---4(vibrato)-2-4-2-------------4(vibrato)-2-4-4p2------------
------------------------------------------4------------------------------4(vibrato)-

---0-7-2-5-7-2-5-7-2-5-7-2-5-7-5-7-7-7-2-5-7-2-5-7-2-5-7-2-5-7-2-
-2---------------------------------------------------------------

--------------------------------------------------------10-7-5-7-5-2-5-2-0-2-0-----
-5-5-5/7-7-7-7/9-9-9-9/11-11-11-11/12-12-12-12/14-14-14----------------------------
-x-x-xh--x-x-xh--x-x-xh---x--x---xh---x--x---xh---x--x-----------------------------
-3-3-3/5-5-5-5/7-7-7-7/9--9--9---9/10-10-10-10/12-12-12----------------------------

-2---2-----------------------------------------------------------------------------
---4---4-2-4-2---2-----------------------------------------------------------------
---------------4---14/16-16-16-16\14-14-14-14\12-12-12\11-11-11--------------------
--------------------xh---x--x---xp---x--x---xp---x---x-x--x--x---------------------
-------------------12/14-14-14-14\12-12-12-12\10-10-10\9--9--9---------------------

-2-0---------------------------------------------------------------------------------
-----2-4-2---2-----------------------------------------------------------------------
-----------2---4-2-4-2---2------------------------------------2^(vibrato)-4^(vibrato)
-----------------------4-------------------------------------------------------------
---------------------------11\9-9-9-9\7-7-7-7/9-9-9-9-\-8-/-9------------------------
----------------------------9\7-7-7-7\5-5-5-5/7-7-7-7-\-6-/-7------------------------

-------------------------5^(vibrato0-7^(vibrato)-8^(vibrato)-10^(vibrato)-
-0^(vibrato)-2^(vibrato)--------------------------------------------------

-12^(vibrato)-12-10-4/6----------------
------------------------4-2------------
----------------------------4(vibrato)-
---------------------------------------
---------------------------------------
---------------------------------------

There are no unachievable....
---2-----1-------4-----------2-----1h2-----2h1-----4--------------------
-----3-----1-------4-------3-------------------1-----4------------------
-------3-----1-------4---3-------3-------1-------------4----------------
-1---------------------1-------1-------------------------3/4-3(vibrato)-
---------------------------------------4-----------------xh--x----------
---------------4---------------------------------4-------1/2-1----------
            
Submit corrections

comments powered by Disqus
↑ Back to top | Ozzy Osbourne Tabs for I Just Want You. Lyrics for acoustic guitar and electric guitar. Tablatures and chords are parodies/interpretations of the original songs. You may use it for private study, scholarship, research or language learning purposes only