» » »

Ozzy Osbourne, Get Me Through Tabs (ver.6)

Artists:  A B C D E F G H I J K L M N O P Q R S T U V W X Y Z # 

Get Me Through Tabs (ver.6)

Ozzy Osbourne Tabs
 Rating:
4/5 (4 votes)
Get Me Through lessons Tabs too difficult? Try these video lessons and learn fast
                Ozzy Osbourne-It Gets Me Through

Symbols
h=Hammer On
p=Pull Off
/=Slide Up
\=Slide Down
~=Vibrato
^=Bend
P.M.=Palm Mute

Chorus Riff(Distortion)
e|-----------------------------------------------|
B|-----------------------------------------------|
G|-----------------------------------------------|
D|-2-2--2/5\2-2--2/5\2-2-2-2--2/5\2-2--2---------|
A|-2-2--2/5\2-2--2/5\2-2-2-2--2/5\2-2--2---------|
E|-0-0--0/3\0-0--0/3\0-0-0-0--0/3\0-0--0-3-4-5-6-|


Verse Riff(Distortion)
e|-----------------------------------------------|
B|-----------------------------------------------|
G|-----------------------------------------------|
D|-2-2--2/5\2-2--2/5\2-2-2-2--2/5\2-2--2-5-5-5-5-|
A|-2-2--2/5\2-2--2/5\2-2-2-2--2/5\2-2--2-5-5-5-5-|
E|-0-0--0/3\0-0--0/3\0-0-0-0--0/3\0-0--0-3-3-3-3-|
			              P.M.--> every second time
Pre-Solo(Distortion)
e|---------------------------------------------------------------|
B|-----8-8---10-8----------------------8-8---10-8----------------|
G|-9------9----------12-11---12-11-9------9-----------12-11------|
D|---------------10-------10----------------------10-------9~~~~~|
A|---------------------------------------------------------------|
E|---------------------------------------------------------------|

Solo(Distortion)
e|--------------------------------------------------|
B|-----8^--8^----10^---8-7--7-8---10^-10-8-7-8------|
G|-9----------9-------------------------------------|
D|------------------------------10-------------10---|
A|--------------------------------------------------|
E|--------------------------------------------------|

e|---------------------------------------------------------------------------------------------|
B|---------------------------------------------------------10-10-10-10-9-9-9-9-8-8-8-8-7-7-7-7-|
G|-9-7-9-7-9-7-9-7-11-7-11-7-11-7-11-7-12-7-12-7-12-7-12-7-------------------------------------|
D|---------------------------------------------------------------------------------------------|
A|---------------------------------------------------------------------------------------------|
E|---------------------------------------------------------------------------------------------|

e|----12------12P10H12--17--16-17-16-17-16-15-12P10H12-----------------------------------------|
B|----------------------------------------------------12-10-------------------------------10^--|
G|-----------------------------------------------------------9^--9-7-9-7-9-7-9-7-9-7-9-7-------|
D|---------------------------------------------------------------------------------------------|
A|---------------------------------------------------------------------------------------------|
E|---------------------------------------------------------------------------------------------|

e|--------10^--------8~~~~~~~~~~~~~~~|
B|-10P8H10---------------------------|
G|--------------9-8-7----------------|
D|-----------------------------------|
A|-----------------------------------|
E|-----------------------------------|
            
Submit corrections

comments powered by Disqus
↑ Back to top | Ozzy Osbourne Tabs for Get Me Through. Lyrics for acoustic guitar and electric guitar. Tablatures and chords are parodies/interpretations of the original songs. You may use it for private study, scholarship, research or language learning purposes only