>
 >
I Don't Know

I Don't Know Bass Tabs

Ozzy Osbourne - I Don't Know chords, tabs, tablatures, lyrics

Guitar lessons | Add/correct | Request | Top 50 tabs Artists:  A B C D E F G H I J K L M N O P Q R S T U V W X Y Z 0-9

I Don't Know Bass Tabs – Ozzy Osbourne

CD, Sheet music, Poster

Do you like I Don't Know? Share with your friends now
Bass TabsTabs
untitled






Ozzy Osbourne- Blizzard of OZZ


 Intro
 G----------/19------17---------
 D---------------17-----17------
 A---R---------------------17/--
 E------------------------------

 Verses
 G--------------------------------------------------------
 D--------------------------------------------------------
 A--------------------------------------------------------
 E--5--5--5--5-5-\3/--5--5--5--5-5-\3/--5--5--5--5-5-\3/--

 Verse Fill 1
 G------------------------------
 D----------------------7-7-----
 A--------------/7-7-5----------
 E--3-3-2-3-0---------------5/--

 Fill 2
 G----------------------
 D----------------------
 A--/10-9-7-9-7----7-9--
 E--------------10------

 Fill 3                  V- release into verse
 G---------------------------
 D---------------------------
 A------------0-2-3b(4)r(0)--
 E--0-2-3-4-3----------------

 Fill 4
 G-----------------------
 D----55-----------------
 A--5----2-3-4-55--------
 E----------------2-3-4--

 Fill 5
 G----------------------
 D-----5-4-2-4-2-0-2-4--
 A--/5------------------
 E----------------------

 Fill 6 (second and third verses only)
 G------------------------
 D------------------------
 A------10-9-10--9--------
 E--10-----------10--10/--

 Pre Chorus x 3
 "Everyone goes through changes.."
 G----------------------------------
 D----------------------------------
 A----------------------------------
 E--3--3--3--3--3--3--3--0-1-2-3-2--

 Chorus  
   "Don't   ask     me.."   "I don't....know" (into verse)
 G----------------------------------
 D----------------------------------
 A--8-8-8-8-7-7-7-7-5-5-5-5--3------
 E-------------------------------3--

 Verse
 Fill 3
 Fill 6
 Fill 4
 Fill 3
 Fill 2
 Fill 1
 Pre-chorus
 Chorus

 Interlude x 3
 G--------------------------------------
 D-------77--------77-------77----------
 A--------------------------------3-----
 E--5-5-----5-5-5-----5-5-5----5-----3--

 End Interlude
 G-----------------
 D-----------------
 A-----------------
 E--5---3---2---1--

 Slow Part x many times
 G--------------------------------------------
 D--------------------------------------------
 A--5----5--3----3--2----2--------5--3--2-----
 E-------------------------1--3h5----------3--

 End slow part
 G----------------------------------
 D----------------------------------
 A--8-8-8-8-7-7-7-7-5-5-5-5--3------
 E-------------------------------3--

 Pre-Solo
 G-----------------------------------------
 D-------77--------77-------77-------------
 A--------------------------------4-5-6-7--
 E--5-5-----5-5-5-----5-5-5----5-----------

 G--------------------------------------
 D-------77--------77-------77----------
 A--------------------------------3-----
 E--5-5-----5-5-5-----5-5-5----5-----3--

 G-----------------------------------------
 D-------77--------77-------77-------------
 A--------------------------------4-5-6-7--
 E--5-5-----5-5-5-----5-5-5----5-----------

 G---------------------------------------
 D-------77--------77--------------------
 A------------------------------4-5-6-7--
 E--5-5-----5-5-5------0-2-3--5----------

 Solo x 2
 G-----------------------------------------------------------
 D---------------------------------------------22-33-44-55---
 A-----------------------------------------------------------
 E--3--3--3--3--3--3--3--0-1-2-3-2-3--3--3--3----3--3--3--3--

 ...Solo cont
 G-------------------------------------------------------------
 D---------------------------------------------22---44---5-----
 A-------------------------------------------------------------
 E--3--3--3--3--3--3--3--0-1-2-3-2-3--3--3--3-----3----3----3--

 Solo 2 x 4
 G-----------------------------------------
 D-------77--------77-------77-------------
 A--------------------------------4-5-6-7--
 E--5-5-----5-5-5-----5-5-5----5-----------

 Verse Intro   (may be in higher octave)
 G-------------------------/7p6h7--
 D----------------5-5--7-7---------
 A----R------/5-5------------------
 E---------------------------------

 Verse
 Fill 3
 Fill 2
 Fill 6
 Fill 1
 Fill 5
 Pre-Chorus
 Chorus





Comments


Popular Ozzy Osbourne tabs & chords
I Dont Know 2 Bass Tabs
Paranoid Bass Tabs
You Can Kill Rock And Roll Bass Tabs
Crazy Train 1 Chords
So Tired Chords
Can You Hear Them Intro Tabs
Crazy Train 1 Tabs
Gets Me Through Live Intro Tabs
Life Wont Wait Tabs
No More Tears Tabs


Song lyrics



↑ Back to top | Tablatures and chords are parodies/interpretations of the original songs. You may use it for private study, scholarship, research or language learning purposes only
© 2014 AZChords.com Contact us | Privacy policy | DMCA | Add/correct tabs | Request tabs | Top 50 tabs