>
 >
I Dont Know

I Dont Know Bass Tabs

Ozzy Osbourne - I Dont Know chords, tabs, tablatures, lyrics

Guitar lessons | Add/correct | Request | Top 50 tabs Artists:  A B C D E F G H I J K L M N O P Q R S T U V W X Y Z 0-9

I Dont Know Bass Tabs – Ozzy Osbourne

CD, Sheet music, Poster

Do you like I Dont Know? Share with your friends now
Bass TabsBass Tabs v2
-------------------------------------------------------------------------------
			     I DON'T KNOW - Ozzy Osbourne
-------------------------------------------------------------------------------


Tuning: Standard



     W                   W                   W                   W                 
G||-------------------|-------------------|-------------------|-------------------|
D||-------------------|-------------------|-------------------|-------------------|
A||-------------------|-------------------|-------------------|-------------------|
E||-------------------|-------------------|-------------------|-------------------|


      Q     Q     E   E   Q        Q    Q    E.  S E  E     Q    Q    E.  S E  E   
--17g19-------------------------|------------------------|------------------------|
-----------17----19-------------|------------------------|------------------------|
---------------------17---------|------------------------|------------------------|
-------------------------17\----|--5----5----5---x-2--3--|--5----5----5---x-5--3--|


  Q    Q    E.  S Q       E  E  E  E   E   E   E   E      Q    Q    E.  S E  E   
-----------------------|-------------------------------|------------------------|
-----------------------|-------------------------------|------------------------|
-----------------------|--------------10------12-------|------------------------|
--5----5----5---0-5----|--3--2--3--2------10------10\--|--5----5----5---x-2--3--|


  Q    Q    E.  S E  E     Q    Q    E.  S Q         E  E  E  E  E  E  E  E   
------------------------|-----------------------|----------------------------|
------------------------|-----------------------|--4g5--4-----4-----------4--|
------------------------|-----------------------|----------7-----7--5--7-----|
--5----5----5---x-5--3--|--5----5----5---0-5----|----------------------------|


  Q    Q    E.  S E  E     Q    Q    E.  S E  S S    Q    Q    E.  S E  S S  
------------------------|-------------------------|-------------------------|
------------------------|-------------------------|-------------------------|
------------------------|-------------------------|-------------------------|
--5----5----5---x-5--3--|--5----5----5---x-5--3-3-|--5----5----5---x-5--3-3-|


  E  E  E  E  E  E  E  E     Q    Q    E.  S E  E     Q    Q    E.  S E  E   
--------------------------|------------------------|------------------------|
--------------------------|------------------------|------------------------|
-----------------------3--|------------------------|------------------------|
--0--1--2--3--2--3--4-----|--5----5----5---x-0--3--|--5----5----5---x-0--3--|


  Q    Q    Q    E   E      E  E  E  E  E  E  E  E     Q    Q    E.  S E  S S  
-------------------------|--------------------------|-------------------------|
-------------------------|--------------------------|-------------------------|
-------------------------|--5--2--3--4--------------|-------------------------|
--5----5----5----5--10\--|--------------5--2--3--4--|--5----5----5---x-5--3-3-|


  Q    Q    E.  S E  S S    Q    Q    E.  S E  E       E  E  E  E  E  E  E   E   
-------------------------|------------------------|-----------------------------|
-------------------------|------------------------|--4g5--4-----4---------------|
-------------------------|------------------------|----------7-----7--5--7s--9--|
--5----5----5---x-5--3-3-|--5----5----5---x-5--5--|-----------------------------|


  Q    Q    Q    Q       Q    Q    E  E  E  E     E  E  Q    Q    Q       Q    Q    E  E  E  E   
----------------------|------------------------|-----------------------|------------------------|
----------------------|------------------------|-----------------------|------------------------|
----------------------|------------------------|-----------------------|------------------------|
--3----3----3----3----|--3----3----3--0--1--2--|--3--1--3----3----3----|--3----3----3--0--1--2--|


  E  E  Q    Q    Q       Q    Q    E  E  E  E     E  E  E  E  E  E  E  E   
-----------------------|------------------------|--------------------------|
-----------------------|------------------------|--------------------------|
-----------------------|------------------------|--8--8--8--8--7--7--7--7--|
--3--1--3----3----3----|--3----3----3--0--1--2--|--------------------------|


  E  E  E  E  E  E  E  E     Q    Q    E.  S E  S S    Q    Q    E.  S E  S S  
--------------------------|-------------------------|-------------------------|
--------------------------|-------------------------|-------------------------|
--5--5--5--5--3--3--------|-------------------------|-------------------------|
--------------------3--3--|--5----5----5---x-5--3-3-|--5----5----5---x-5--3-3-|


  Q    Q    Q    E  E     E  E  E  E  E  E  E  E     Q    Q    E.  S E  S S  
-----------------------|--------------------------|-------------------------|
-----------------------|--------------------------|-------------------------|
-----------------------|-----------------------3--|-------------------------|
--5----5----5----5--3--|--0--1--2--3--2--3--4-----|--5----5----5---x-5--3-3-|


  Q    Q    E.  S E  S S    Q    Q    E.  S E  S S     E   E   E   E   Q     Q      
-------------------------|-------------------------|--12--11--12--11---------------|
-------------------------|-------------------------|------------------------12\----|
-------------------------|-------------------------|-------------------------------|
--5----5----5---x-5--3-3-|--5----5----5---x-5--3-3-|------------------10-----------|


  Q    Q    E.  S E  S S    Q    Q    E.  S E  S S    Q    Q    E.  S E  E   
-------------------------|-------------------------|------------------------|
-------------------------|-------------------------|---------------------7--|
-------------------------|-------------------------|------------------------|
--5----5----5---x-5--3-3-|--5----5----5---x-5--3-3-|--5----5----5---x-5-----|


  E  E  E  E  E  E  E  E     Q    Q    E.  S E  S S    Q    Q    E.  S E  S S  
--------------------------|-------------------------|-------------------------|
--------------------------|-------------------------|-------------------------|
--5--2--3--4--5-----------|-------------------------|-------------------------|
-----------------2--3--4--|--5----5----5---x-5--3-3-|--5----5----5---x-5--3-3-|


  Q    Q    E.  S E  S S    E  E  E  E  E  E  E  E     Q    Q    E.  S E  S S  
-------------------------|--------------------------|-------------------------|
-------------------------|--------------------------|-------------------------|
-------------------------|-----------------------3--|-------------------------|
--5----5----5---x-5--3-3-|--0--1--2--3--2--3--4-----|--5----5----5---x-5--3-3-|


  Q    Q    E.  S E  S S    Q    Q    E.  S E  S S      E  E  E  E  E  E  E  E   
-------------------------|-------------------------|----------------------------|
-------------------------|-------------------------|--4g5--4-----4-----------4--|
-------------------------|-------------------------|----------7-----7--5--7-----|
--5----5----5---x-5--3-3-|--5----5----5---x-5--3-3-|----------------------------|


  Q    Q    E.  S E  S S    Q    Q    E.  S E  S S    Q    Q    E.  S E  S S  
-------------------------|-------------------------|-------------------------|
-------------------------|-------------------------|-------------------------|
-------------------------|-------------------------|-------------------------|
--5----5----5---x-5--3-3-|--5----5----5---x-5--3-3-|--5----5----5---x-5--3-3-|


  E  E  E  E  E  E  E  E      Q    Q    Q    Q       Q    Q    E  E  E  E     E  E  Q    Q    Q     
---------------------------|----------------------|------------------------|-----------------------|
--------------4-----7------|----------------------|------------------------|-----------------------|
-----------------5---------|----------------------|------------------------|-----------------------|
--3--2--3--3-----------8\--|--3----3----3----3----|--3----3----3--0--1--2--|--3--1--3----3----3----|


  Q    Q    E  E  E  E     E  E  Q    Q    Q       Q    Q    E  E  E  E   
------------------------|-----------------------|------------------------|
------------------------|-----------------------|------------------------|
------------------------|-----------------------|------------------------|
--3----3----3--0--1--2--|--3--1--3----3----3----|--3----3----3--0--1--2--|


  E  E  E  E  E  E  E  E     E  E  E  E  Q    Q       E  E  E  E  E  E  E  E   
--------------------------|------------------------|--------------------------|
--------------------------|------------------------|--------7-----------7-----|
--8--8--8--8--7--7--7--7--|--5--5--5--5--3---------|--------------------------|
--------------------------|-------------------3----|--5--5-----5--L--5-----5--|


  E  E  S S E  Q    Q       E  E  E  E  E  E  S S E     E  E  S S E  Q    Q     
-------------------------|---------------------------|-------------------------|
--------7-7--------------|--------7-----------7-7----|--------7-7--------------|
---------------3---------|---------------------------|---------------3---------|
--5--5------5-------3----|--5--5-----5--L--5------5--|--5--5------5-------3----|


  E  E  S S E  E  E  S S E     E  E  S S E  Q    Q       H        H           H        H         
----------------------------|-------------------------|--------------------|--------------------|
--------7-7----------7-7----|--------7-7--------------|--------------------|--------------------|
----------------------------|---------------3---------|--------------------|--------------------|
--5--5------5--5--5------5--|--5--5------5-------3----|--5--------3--------|--2--------1--------|


  Q    E.  S Q    E.  S    Q    E.  S E.  S  S S S S    Q    E.  S Q    E.  S  
------------------------|----------------------------|------------------------|
------------------------|----------------------------|------------------------|
--5----L---5-3----L---3-|--2----L---2--------5-3-2---|--5----L---5-3----L---3-|
------------------------|-------------1---1/-------3-|------------------------|


  Q    E.  S E.  S  S S S S    Q    E.  S Q    E.  S    Q    E.  S E.  S  S S S S  
----------------------------|------------------------|----------------------------|
----------------------------|------------------------|----------------------------|
--2----L---2--------5-3-2---|--5----L---5-3----L---3-|--2----L---2--------5-3-2---|
-------------1---1/-------3-|------------------------|-------------1---1/-------3-|


  Q    E.  S Q    E.  S    Q    E.  S E.  S  S S S S    Q    E.  S Q    E.  S  
------------------------|----------------------------|------------------------|
------------------------|----------------------------|------------------------|
--5----L---5-3----L---3-|--2----L---2--------5-3-2---|--5----L---5-3----L---3-|
------------------------|-------------1---1/-------3-|------------------------|


  Q    E.  S E.  S  S S S S    Q    E.  S Q    E.  S    Q    E.  S E.  S  S S S S  
----------------------------|------------------------|----------------------------|
----------------------------|------------------------|----------------------------|
--2----L---2--------5-3-2---|--5----L---5-3----L---3-|--2----L---2--------5-3-2---|
-------------1---1/-------3-|------------------------|-------------1---1/-------3-|


  Q    E.  S Q    E.  S    S S S S S S S S S S S S E  E     E  E  S S E  E  E  E  E   
------------------------|--------------------------------|---------------------------|
------------------------|--------------------------------|--------7-7----------7-----|
--5----L---5-3----L---3-|--8-8-8-8-7-7-7-7-5-5-5-5-3-----|---------------------------|
------------------------|-----------------------------3--|--5--5------5--L--5-----5--|


  E  E  S S E  E  E  E  E     E  E  S S E  E  E  E  E     E  E  E  E  Q    Q     
---------------------------|---------------------------|------------------------|
--------7-7----------------|--------7-7----------7-----|--------7---------------|
---------------4--5--6--7--|---------------------------|--------------3---------|
--5--5------5--------------|--5--5------5--L--5-----5--|--5--5-----5-------3----|


  E  E  S S E  E  E  E  E     E  E  S S E  E  E  E  E     E  E  S S E  E  E  E  E   
---------------------------|---------------------------|---------------------------|
--------7-7----------7-----|--------7-7----------------|--------7-7----------7-----|
---------------------------|---------------4--5--6--7--|---------------------------|
--5--5------5--5--5-----5--|--5--5------5--------------|--5--5------5--5--5-----5--|


  E  E  E  E  E  E  E  E     Q    Q    Q    Q       Q    Q    E  E  E  E     E  E  Q    Q    E  E   
--------------------------|----------------------|------------------------|------------------------|
--------------------------|----------------------|------------------------|------------------------|
--------------4--5--6--7--|----------------------|------------------------|------------------------|
--2--3--4--5--------------|--3----3----3----3----|--3----3----3--0--1--2--|--3--1--3----3----3--3--|


  S S E  E  E  E  E  E  E     Q    Q    Q    Q       Q    Q    E  E  E  E   
---------------------------|----------------------|------------------------|
--2-2----3-----4-----5-----|----------------------|------------------------|
---------------------------|----------------------|------------------------|
------3-----3-----3-----3--|--3----3----3----3----|--3----3----3--0--1--2--|


  E  E  Q    Q    E  E     S S E  E  E  E  E  E  E     Q    Q    Q    Q     
------------------------|---------------------------|----------------------|
------------------------|--2-2-------4--------5-----|----------------------|
------------------------|---------------------------|----------------------|
--3--1--3----3----3--3--|------3--3-----3--3-----3--|--3----3----3----3----|


  Q    Q    E  E  E  E     E  E  Q    Q    E  E     S S E  E  E  E  E  E  E   
------------------------|------------------------|---------------------------|
------------------------|------------------------|--2-2----3-----4-----5-----|
------------------------|------------------------|---------------------------|
--3----3----3--0--1--2--|--3--1--3----3----3--3--|------3-----3-----3-----3--|


  Q    Q    Q    Q       Q    Q    E  E  E  E     E  E  Q    Q    E  E   
----------------------|------------------------|------------------------|
----------------------|------------------------|------------------------|
----------------------|------------------------|------------------------|
--3----3----3----3----|--3----3----3--0--1--2--|--3--1--3----3----3--3--|


  S S E  E  E  E  E  E  E     E  E  S S E  E  E  E  E     E  E  E  E  E  E  E  E   
---------------------------|---------------------------|--------------------------|
--2-2-------4--------5-----|--------7-7----------7-----|--------7-----------------|
---------------------------|---------------------------|--------------4--5--6--7--|
------3--3-----3--3-----3--|--5--5------5--5--5-----5--|--5--5-----5--------------|


  E  E  S S E  E  E  E  E     E  E  S S E  E  E  E  E     E  E  S S E  E  E  E  E   
---------------------------|---------------------------|---------------------------|
--------7-7----------7-----|--------7-7----------------|--------7-7----------7-----|
---------------------------|---------------4--5--6--7--|---------------------------|
--5--5------5--5--5-----5--|--5--5------5--------------|--5--5------5--5--5-----5--|


  E  E  E  E  E  E  E  E     E  E  S S E  E  E  S S E     E  E  Q    E  E  E  E   
--------------------------|----------------------------|-------------------------|
--------7-----------------|--------7-7----------7-7----|--------7----------------|
--------------4--5--6--7--|----------------------------|-------------4--5--6--7--|
--5--5-----5--------------|--5--5------5--5--5------5--|--5--5-------------------|


  Q    Q    H           W                   W                   Q     S  S  E   S  S  S  S  E   E   
---------------------|-------------------|-------------------|-----------------------------19--19--|
---------------------|-------------------|-------------------|--0----17-17-17--19-19-19-19---------|
---------------------|-------------------|-------------------|-------------------------------------|
--5------------------|-------------------|-------------------|-------------------------------------|


  Q    Q    E.  S E  S S    Q    Q    E.  S E  S S    Q    Q    E.  S E  E   
-------------------------|-------------------------|------------------------|
-------------------------|-------------------------|------------------------|
-------------------------|-------------------------|------------------------|
--5----5----5---x-5--3-3-|--5----5----5---x-5--3-3-|--5----5----5---x-5--5--|


  E  E  E  E  E  E  E  E     Q    Q    E.  S E  S S    Q    Q    E.  S E  S S  
--------------------------|-------------------------|-------------------------|
--------------------------|-------------------------|-------------------------|
-----------------------3--|-------------------------|-------------------------|
--0--1--2--3--2--3--4-----|--5----5----5---x-5--3-3-|--5----5----5---x-5--3-3-|


  Q    Q    E.  S E  E       E  E  E  E  E  E  E   E     Q    Q    E.  S E  S S  
------------------------|-----------------------------|-------------------------|
------------------------|--4g5--4-----4---------------|-------------------------|
------------------------|----------7-----7--5--7s--9--|-------------------------|
--5----5----5---x-5--5--|-----------------------------|--5----5----5---x-5--3-3-|


  Q    Q    E.  S E  S S    Q    Q    E.  S E  S S     E   E   E   E   Q     Q      
-------------------------|-------------------------|--12--11--12--11---------------|
-------------------------|-------------------------|-------------------------------|
-------------------------|-------------------------|-------------------------------|
--5----5----5---x-5--3-3-|--5----5----5---x-5--3-3-|------------------10----15\----|


  Q    Q    E.  S E  S S    Q    Q    E.  S E  S S    Q    Q    E.  S E  E   
-------------------------|-------------------------|------------------------|
-------------------------|-------------------------|------------------------|
-------------------------|-------------------------|------------------------|
--5----5----5---x-5--3-3-|--5----5----5---x-5--3-3-|--5----5----5---x-5--2--|


  E  E  E  E  E  E  E  E     Q    Q    E.  S E  S S    Q    Q    E.  S E  S S  
--------------------------|-------------------------|-------------------------|
--------------4-----7-----|-------------------------|-------------------------|
-----------------5-----5--|-------------------------|-------------------------|
--3--2--3--3--------------|--5----5----5---x-5--3-3-|--5----5----5---x-5--3-3-|


  Q    Q    E.  S E  E       E  E  E  E  E  E  E   E     Q    Q    Q    Q     
------------------------|-----------------------------|----------------------|
------------------------|--4g5--4-----4---------------|----------------------|
------------------------|----------7-----7--5--7s--9--|----------------------|
--5----5----5---x-5--5--|-----------------------------|--3----3----3----3----|


  Q    Q    E  E  E  E     E  E  Q    Q    Q       Q    Q    E  E  E  E     E  E  Q    Q    Q     
------------------------|-----------------------|------------------------|-----------------------|
------------------------|-----------------------|------------------------|-----------------------|
------------------------|-----------------------|------------------------|-----------------------|
--3----3----3--0--1--2--|--3--1--3----3----3----|--3----3----3--0--1--2--|--3--1--3----3----3----|


  Q    Q    E  E  E  E     E  E  E  E  E  E  E  E     E  E  E  E  E  E  E  E   
------------------------|--------------------------|--------------------------|
------------------------|--------------------------|--------------------------|
------------------------|--8--8--8--8--7--7--7--7--|--5--5--5--5--3--3--------|
--3----3----3--0--1--2--|--------------------------|--------------------3--3--|

   
  H         H                                          
-----------------------------------------------------||
-----------------------------------------------------||
-----------------------------------------------------||
--5\-------------------------------------------------||




Duration Legend
---------------
W - whole
H - half
Q - quarter
E - 8th
S - 16th
T - 32nd
X - 64th
. - note dotted
|-n-|  - n-tuplets


Tablature Legend
----------------
L - tied note
x - dead note
g - grace note
(n) - ghost note
> - accentuded note
NH - natural harmonic
AH - artificial harmonic
TH - tapped harmonic
SH - semi harmonic
PH - pitch harmonic
h - hammer on
p - pull off
b - bend
br - bendRelease
pb - preBend
pbr - preBendRelease
brb - bendReleaseBend
\n/ - tremolo bar dip
\n - tremolo bar dive
-/n - tremolo bar Release up
/n\ - tremolo bar inverted dip
/n - tremolo bar return
-\n - tremolo bar Release down
S - shift slide
s - legato slide
/ -  slide into from below or out of upwards
\ -  slide into from above or out of downwards
~ - vibrato
W - wide vibrato
tr - trill
TP - tremolo picking
T - tapping
S - slap
P - pop
< - fade in
^ - brush up
v - brush down





Comments


Popular Ozzy Osbourne tabs & chords
Bark At The Moon 1 Bass Tabs
I Dont Wanna Stop Bass Tabs
No Easy Way Out Bass Tabs
Spiders In The Night Bass Tabs
Goodbye To Romance Chords
Children Of The Grave Live Intro Tabs
Junkie 1 Tabs
Mr. Tinkertrain Tabs
Now You See It Tabs
Shot In The Dark Ukulele


Song lyrics



↑ Back to top | Tablatures and chords are parodies/interpretations of the original songs. You may use it for private study, scholarship, research or language learning purposes only
© 2014 AZChords.com Contact us | Privacy policy | DMCA | Add/correct tabs | Request tabs | Top 50 tabs