>
 >
I Don't Know

I Don't Know Guitar Tabs

Ozzy Osbourne - I Don't Know chords, tabs, tablatures, lyrics

Guitar lessons | Add/correct | Request | Top 50 tabs Artists:  A B C D E F G H I J K L M N O P Q R S T U V W X Y Z 0-9

I Don't Know Guitar Tabs – Ozzy Osbourne

CD, Sheet music, Poster

Do you like I Don't Know? Share with your friends now
Bass TabsTabs
  
  

|----------------------------------------------------- 
|----------------------------------------------------- 
|-------2---------------4----------------5------------ 
|-------2---------------4----------------5------------ 
|-------0--0-000-000000-0--00000-0000000-0-000000000-- 
|-17\------------------------------------------------- 

|-----3-------------------------||-------------------------------- 
|-----3---------3---------------||---1p0h1p0h1p0------------------ 
|-7\--0---------2---------------||--------------2p0h2p0----------- 
|-7\--0---------0---------------||---------------------2p0h2p0---- 
|-------------------------------||----------------------------3-0- 
|-----3--------------0---3^-----||-------------------------------- 

"Everyone goes through changes..." 
|----------------3-------3---3------------------3------3---3------- 
|-------------6----------3---3---------------6---------3---3------- 
|----5-----5-------------0---0------5-----5------------0---0------- 
|-3-----3----------------0---0---3-----3---------------0---0------- 
|------------------------------------------------------------------ 
|-------------------5^---3---3---------------------5^--3---3------- 
                                  "Dont ask me..." 
|---------------------------------|-------------------------------- 
|---------6-6-----6-6-8-8-6-6-----|-------------------------------- 
|-----5-5-----5-5-------------5-0-|-10----9----7----5-------------- 
|-3-3-----------------------------|-10----9----7----5--5----------- 
|---------------------------------|--8----7----5----3--5--back to first riff 
|---------------------------------|--------------------3----------- 
Fill: 
|-this is tapping----------------------------------------- 
|-12p5p0-12p5p0-12p5p0-12p5p0-12p4p0-12p4p0-12p2p0-12p2p0- 
|--------------------------------------------------------- 
|--------------------------------------------------------- 
|--------------------------------------------------------- 
|--------------------------------------------------------- 
  
|------------------------------------------------------------------ 
|------------------------------------------------------------------ 
|-----7^-^-----0-----5----------7^-^-----0-----0---5--------------- 
|-----7--------0-----5--5-------7--------0-----0---5--------------- 
|-0-0--------0-------3--5---0-0--------0-----------3--------------- 
|-----------------------3-----------------------------5--3--2--01~~ 

Bridge: 
harm.===============================|| 
|---------------|-------------12--|----------7---------------------| 
|-7-------------|---------7-------|-12-------8--10----8------------| 
|-7-------------|-5---------------|-12-------7---------------------| 
|-7-------------|-----------------|-12-----------------------------| 
|---------------|-----------------|--------------------------------| 
|---------------|-----------------|--------------------------------| 
|               |                 |                                | 
|-2-------------|-----------------|--------------------------------| 
|-3------3h5/7--|-8-------7-------|-8-----------------8------------| 
|-2------2-/-7--|-9-------7----9--|-7--7-----------7---------------| 
|-0-------------|-----------------|-5-----5-----5------------------| 
|---------------|-----------------|--------------------------------| 
|---------------|-----------------|-7-----------7------------------| 

|------------------------------|----------------|------------------| 
|-10---------------------------|-7-------7h8/10-|-5-----8----10----| 
|---12p10-10-------------------|-7-------7h9/11-|-5----------------| 
|-----------12p10-10-----------|----------------|-5----------------| 
|-------------------12p10------|-9--------------|-------7----------| 
|------------------------12\10-|----------------|------------------| 
|                              |                |                  | 
|------------------------------|----------------|------------------| 
|------------------------------|----------------|-------------7----| 
|---------5---7-------5--------|---------7h9p7--|-9----------------| 
|------7-------------------7---|---------7------|-5----------------| 
|-8----------------------------|-5--------------|------------------| 
|------------------------------|----------------|------------------| 

|---------7-----------|---------------------------------|---------- 
|-7----------10----8--|---------------------------------|---------- 
|-9-------------------|-14p12p10-10---------------------|---------- 
|---------------------|-10---------12p10-10h12p10-------|---------- 
|---------------------|---------------------------12\10-|---9------ 
|---------------------|---------------------------------|---------- 
|                     |                                 | 
|------------------3--|---------------------------------|---------- 
|-3-------------3-----|-------------3----------1--------|---------- 
|-0-------------------|---------2-----------------2-----|---------- 
|---------------------|---------------------------------|--(0)----- 
|-2-------------------|-----3---------------------------|---------- 
|---------------------|-1-------------------------------|---------- 

Solo: 
|-----------------------15----------15----------------------------- 
|-18^---18^~~~~~~~~~~~----18-15---15--18-15---15------------------- 
|------------------------------17^----------18--18-15-17-15-------- 
|-----------------------------------------------------------17-15-- 
|------------------------------------------------------------------ 
|------------------------------------------------------------------ 

|------------17^----------^^---17p15-17p15h17p15h17p15\13~~~------- 
|--------------------------------------------------------------13^- 
|-17^---15--------------------------------------------------------- 
|------------------------------------------------------------------ 
|------------------------------------------------------------------ 
|------------------------------------------------------------------ 

hold bend on 13, bend up 1/2 step each bar while playing this: 
|---------------------------------------------------------------------- 
|-16p13h16p13h16p13---------------------------------------------------- 
|---------------------------------------------------------------------- 
|---------------------%-----%-----%-----%------%-----12\0h3p0h3p0h3p0-- 
|---------------------------------------------------[bend behind nut]-- 
|---------------------------------------------------------------------- 

|-------------------------------------------------------------------------- 
|-----------------------------------------------------------------------18- 
|-----------------------------------------------------15-15-17-17-19-19---- 
|-(0)----------------------------------------15-15--17--------------------- 
|----3/--/15^~~~~---15^~~~~~---13-13-15-15/17-----17----------------------- 
|----------------------------15-------------------------------------------- 

|----------18-21p20p18~~~---------18----------------^-------------- 
|-18-20-20----------------20-18-20--20-18-20^---20^----^^---------- 
|---------------------------------------------------------x-19^---- 
|------------------------------------------------------------------ 
|------------------------------------------------------------------ 
|------------------------------------------------------------------ 

|------------------------------------------------------------------ 
|-------------------------11-10-----11-10-----10-9-----10-9-------- 
|-19^----19^~~~~~~--12-12------12-10-----12-10----11-9------11-9--- 
|------------------------------------------------------------------ 
|------------------------------------------------------------------ 
|------------------------------------------------------------------ 

|-------------------------------------3---------------------------- 
|-9-8-----8-7-----7-6-----6-5-------3---6p3--3--------------------- 
|-----10-8----9-7-----8-6-----7-5-5^-------6---6p5p3--5-3---------- 
|---------------------------------------------------5-------------- 
|------------------------------------------------------------------ 
|------------------------------------------------------------------ 

|-------15--------------------------------------------------------- 
|-----15--18-15---15---------17^^^~~~~~~--------------------------- 
|-5/17---------18----17-15-x--------------------------------------- 
|-----------------------------------------end solo----------------- 
|------------------------------------------------------------------ 
|------------------------------------------------------------------ 
Thing at end: 
|-20p17-20p17--17-------------------------------------------------- 
|------------20--20p17-20p17--17----------------------------------- 
|---------------------------19--19p17-19p17--17-------------------- 
|------------------------------------------19--19p17--------------- 
|---------------------------------------------------19p17---------- 
|--------------------------------------------------------17\------- 
  Well Thats it .





Comments


Popular Ozzy Osbourne tabs & chords
Waiting For Darkness Bass Tabs
Mama Im Coming Home 1 Chords
Dreamer 4 Tabs
Iron Man Tribute 1 Tabs
My Little Man Tabs
Paranoid Live Tabs
Revelation (Mother Earth) Tabs
Revelation Mother Earth 2 Tabs
Secret Loser Tabs
Tomorrow Tabs


Song lyrics



↑ Back to top | Tablatures and chords are parodies/interpretations of the original songs. You may use it for private study, scholarship, research or language learning purposes only
© 2014 AZChords.com Contact us | Privacy policy | DMCA | Add/correct tabs | Request tabs | Top 50 tabs