» » »

Ozzy Osbourne, 11 Silver Tabs (ver.2)

Artists:  A B C D E F G H I J K L M N O P Q R S T U V W X Y Z # 

11 Silver Tabs (ver.2)

Ozzy Osbourne Tabs
 Rating:
3.6/5 (7 votes)
11 Silver lessons Tabs too difficult? Try these video lessons and learn fast
                ---------------------------------------------------------------------------
                             11 Silver- Ozzy Osbourne
---------------------------------------------------------------------------

Tuning:Drop-d

e|-------------------------------------------------------------------------|
B|-------------------------------------------------------------------------|
G|-------------------------------------------------------------------------|
D|-------------------------------------------------------------------------|
A|-------------------------------------------------------------------------|
D|-2-2-0h2/5----2-2-0h2/5---2-2-0h2/5--------------------------------------|
                 (etc,etc for the intro)
verse (listen for rhythm)
e|-------------------------------------------------------------------------|
B|-------------------------------------------------------------------------|
G|-------------------------------------------------------------------------|
D|-0h2--2-2-2-2-2-2--------------------------------------------------------|
A|-0h2--2-2-2-2-2-2--------------------------------------------------------|
D|-0h2--2-2-2-2-2-2--------------------------------------------------------|
chorus
e|-------------------------------------------------------------------------|
B|-------------------------------------------------------------------------|
G|-------------------------------------------------------------------------|
D|-----9-9--7--4--7--------------------------------------------------------|
A|-----7-7--5--2--5--------------------------------------------------------|
D|-------------------------------------------------------------------------|
in the back ground
(with wide,wylde,vibrato)
e|-------------------------------------------------------------------------|
B|-------------------------------------------------------------------------|
G|-------------20----------------------------------------------------------|
D|-------------------------------------------------------------------------|
A|-------------------------------------------------------------------------|
D|-------------------------------------------------------------------------|

solo (the good stuff)
e|--14h16--14h16--14h16--14h16-------------------------|
B|------------------------------14h15--14h15--14h15----|
G|-----------------------------------------------------|
D|-----------------------------------------------------|
A|-----------------------------------------------------|
D|-----------------------------------------------------|

E|------------------------------|
B|------------------------------|
G|-11h14p13-11-11h14p13-11h14p13|
D|------------------------------|
A|------------------------------|
D|------------------------------|

e|--14h16--14h16--14h16--14h16-------------------------|
B|------------------------------14h15--14h15--14h15----|
G|-----------------------------------------------------|
D|-----------------------------------------------------|
A|-----------------------------------------------------|
D|-----------------------------------------------------|

E|------------------------------|
B|------------------------------|
G|-11h14p13-11-11h14p13-11h14p13|
D|------------------------------|
A|------------------------------|
D|------------------------------|

e|--14h16--14h16--14h16--14h16-------------------------|
B|------------------------------14h15--14h15--14h15----|
G|-----------------------------------------------------|
D|-----------------------------------------------------|
A|-----------------------------------------------------|
D|-----------------------------------------------------|

E|------------------------------|
B|------------------------------|
G|-11h14p13-11-11h14p13-11h14p13|
D|------------------------------|
A|------------------------------|
D|------------------------------|

(unison bend all 18's  before playing the 13)
e|---13---13---13---13---13---13---13---13---13---13-----------------------|
B|-18---18---18---18---18---18---18---18---18---18-------------------------|
G|-------------------------------------------------------------------------|
D|-------------------------------------------------------------------------|
A|-------------------------------------------------------------------------|
D|-------------------------------------------------------------------------|

(This time bend the 18 on the e up to the b string)
e|---18-15-15-15---18-15-15-15---18-15-15-15---18-15-15-15-----------------|
B|-------------------------------------------------------------------------|
G|-------------------------------------------------------------------------|
D|-------------------------------------------------------------------------|
A|-------------------------------------------------------------------------|
D|-------------------------------------------------------------------------|

(another bend up to the b for the 13 here) (bend the sh*t out of these last three 18's)
e|--13----------------------------------------------15-17-18-18-18---------|
B|--------16p15-15h16----------------------15-17-18------------------------|
G|--------------------------------15-17-18---------------------------------|
D|-------------------------------------------------------------------------|
A|-------------------------------------------------------------------------|
D|-------------------------------------------------------------------------|

(right after the solo during the beginning of the last chorus) (bend em big)   
e|-------------------------------------------------------------------------|
B|----------------------------------------------------20-------------------|
G|--------20---------------------------------------------------------------|
D|-------------------------------------------------------------------------|
A|-------------------------------------------------------------------------|
D|-------------------------------------------------------------------------|


| /  slide up
| \  slide down
| h  hammer-on
| p  pull-off
| ~  vibrato
| +  harmonic
| x  Mute note
did my best hope you guys enjoy
not 110% sure about the very last part of the solo so if anyone comes up with something better let me know
keep it real
===============================================================================
            
Submit corrections

comments powered by Disqus
↑ Back to top | Ozzy Osbourne Tabs for 11 Silver. Lyrics for acoustic guitar and electric guitar. Tablatures and chords are parodies/interpretations of the original songs. You may use it for private study, scholarship, research or language learning purposes only