» » »

Ozzy Osbourne, 11 Silver Bass tabs (ver.1)

Artists:  A B C D E F G H I J K L M N O P Q R S T U V W X Y Z # 

11 Silver Bass tabs (ver.1)

Ozzy Osbourne Tabs
Rating:
4/5 (1 vote)
Hard to play? Try these video lessons and learn fast.
                song-11 silver
tuning - drop D

TAB INFO:
\ slide down
/ slide up
^ bend the string
~ hold the note
x how many times you play a note eg. x16 is sixteen times

READ THIS!
the songs verse are pretty boring for bass so i have tabbed out all the notes you
can use during them and throughout the whole song

g------------0-2-4-|
d--------0-2-------|
a----0-2-----------|
d-2-5--------------|

there are many more notes but these are the basis notes

guitar start

intro
g-4/9~7-----------------------------------------|
d------9-7-5-7^~-7-5----------------------------|
a--------------------7-5-7~5-2-0----------------|
d--------------------------------5-7^~7-5-2-0---|

g-----------|
d-----------|
a-----------|
d-2-2-0-2-5-| x4

verse (it's very hard to hear what the bass is playing but just playing constant E's 
in fine)
g---|
d---|
a---|
d-2-| continue until break

break
g----------------------------|
d----------------------------|
a-5x16-4x16-3x16-2x8-5x4-6x4-|
d----------------------------|

chorus (play very fast)
g-------|
d-------|
a-------|
d-22222-| x16

g-----------|
d-----------|
a-----------|
d-2-2-0-2-5-| x2

verse
g---|
d---|
a---|
d-2-| continue until break

break
g----------------------------|
d----------------------------|
a-5x16-4x16-3x16-2x8-5x4-6x4-|
d----------------------------|

chorus (play very fast)
g-------|
d-------|
a-------|
d-22222-| x16

solo will be uploaded soon
            

comments powered by Disqus
↑ Back to top | Ozzy Osbourne Bass for 11 Silver. Lyrics for acoustic guitar and electric guitar. Tablatures and chords are parodies/interpretations of the original songs. You may use it for private study, scholarship, research or language learning purposes only