» » »

11 Silver Tabs (ver.1)

Artists:  A B C D E F G H I J K L M N O P Q R S T U V W X Y Z # 

11 Silver Tabs (ver.1)

Ozzy Osbourne
Rating:
4/5 (3 votes)

Hard to play? Try these video lessons and learn fast.
                This is just the basis of the song, I haven't figured all of it out as yet.

Intro

E|-----------------------------|
B|-----------------------------|
G|-----------------------------|
D|-----------------------------|
A|-----------------------------|
D|--2-2-0-2/5~----2-2-0-2/7~---|

Verse

E|----------------------------------------------------------------------------------|
B|----------------------------------------------------------------------------------|
G|----------------------------------------------------------------------------------|
D|--0h2-2-2--------0h2-2-2--x-2-2------0h2-2-2--x-2-2-------------------------------|
A|--0h2-2-2---x4---0h2-2-2--x-2-2------0h2-2-2--x-2-2-----------------------x2------|
D|--0h2-2-2--------0h2-2-2--x-2-2------0h2-2-2--x-2-2--3-2-1-0--3-2-1-0-------------|
                                                      |-------PM-------|

Chorus

E|------------------------------------------------|
B|------------------------------------------------|
G|--9-9--7-7/9--12-12/--5-5-----------------------|
D|--9-9--7-7/9--12-12/--5-5--Let ring---------3~--|
A|--7-7--5-5/7--10-10/--3-3---------------3-5-----|
D|------------------------------------------------|
            
Hard to play? Try these video lessons and learn fast. | Correct




comments powered by Disqus
↑ Back to top | Tablatures and chords are parodies/interpretations of the original songs. You may use it for private study, scholarship, research or language learning purposes only