>
 >
Patterns In The Ivy Ii 1

Patterns In The Ivy Ii 1 Guitar Tabs

Opeth - Patterns In The Ivy Ii 1 chords, tabs, tablatures, lyrics

Guitar lessons | Add/correct | Request | Top 50 tabs Artists:  A B C D E F G H I J K L M N O P Q R S T U V W X Y Z 0-9

Patterns In The Ivy Ii 1 Guitar Tabs – Opeth

CD, Sheet music, Poster

Do you like Patterns In The Ivy Ii 1? Share with your friends now
TabsTabs v2
Band:  Opeth

Copyright (c)  Music For Nations 2001
Version 1.0 - 24 February 2005



.  - palm mute           /  - slide up to
\  - slide down to       ~  - vibrato
h  - hammer on           b  - Bend
p  - pull off            Suffixes for bend
t  - tap                 f  - full bend    h - half bend
ph - pinched harmonic    q  - quarter bend t - tap bend
*  - see comment         ^  - Hold bend    r release bend
x  - Stuccatto           ~  - vibrato bend
,  - slight palm mute    () - ghost note, sustained note
"  - tremolo note        <> - Trill

This is a great song, and is actually played with a capo on the first fret,
but this version is tabbed for playing without the use of a capo. Enjoy.

Tunning E A D G B E

See order of patterns at the bottom*

Pattern 1
|--------------0--------------8p0--------0----------------------0----------|
|--------6--------6----------------6--------6-------------6--------6-------|
|-----7-----7--------7-----7----------7--------7-------7-----7--------7----|
|--0--------------------8---------------------------6----------------------|
|------------------------------------------------------------------------0-|
|--------------------------------------------------------------------------|

------------------------|
------------------------|
-----7-----6------------|
--7-----7-----7\5-------|
-------------------7----|
------------------------|

Pattern 2 (Chorus)
|--------------0------------------0-------------0------------------0------|
|-----------0-----0------------0-------------0-----0------------0---------|
|--------5-----------5------5-------------2-----------2------2-----------0|
|-----7-----------------6--------------4-----------------3----------------|
|--0-------------------------------------------------------------------3--|
|-------------------------------------------------------------------------|

Pattern 3 (Interlude)
|-----------------0------------------------|--------------0----------|---|
|--------3-----3-----3---------3--------3--|--------3--------3-------|-2-|
|-----0-----0-----------0------3--------3--|-----2-----2--------2----|-2-|
|------------------------------------------|-------------------------|-2-|
|--1---------------------------------------|--0--------------------0-|-0-|
|---------------------------3---------3----|-------------------------|---|


Pattern 4 (Interlude 2)
|-------------------------0-----------------|
|---------------3---------------------3-----|
|--------4---------4---------------0-----0--|  X2
|-----4-----4---------4---------4-----------|
|--2-------------------------4--------------|
|-------------------------------------------|

|-------------------------0------------------|
|---------------3--------------------3-------|
|--------4---------4--------------0-----0----| X1
|-----5-----5---------5--------4-------------|
|---------------------------0----------------|
|--0-----------------------------------------|

Solo (Clean Electric)
pt a
|-------------------------------------------------------------------|
|-----------2--3-----2--3------------------------2--3--0--5--3--6b--|
|--------4--------4--------4\2--4-------------4---------------------|
|-----4----------------------------4----2--4------------------------|
|--2----------------------------------------------------------------|
|-------------------------------------------------------------------|

|-------------------------------------------------------------------|
|--10--7--5p3h5---3--2--0~----0--5--7--7h8p7--5--3---2~-------------|
|-------------------------------------------------------------------|
|-------------------------------------------------------------------|
|-------------------------------------------------------------------|
|-------------------------------------------------------------------|
pt b
|-----------------------------------------|
|--7---5---3---2---0----------------------|
|----------------------2------------------| X2
|--------------------------2/4---0h2---0--|
|-----------------------------------------|
|-----------------------------------------|
pt c
|--9---7---2---0----------------------------------------------------|
|--7---5---3---2---3---2--------------------------------------------|
|------------------4---2---4---2------------------------------------| X4
|--------------------------4---2---5--------------------------------|
|----------------------------------5--------------------------------|
|-------------------------------------------------------------------|
 c Fades out after 2 times.

*Order of Patterns -
Pattern 1 x 4

Pattern 2 x 4

Pattern 3 x 2

Pattern 1 x 6

Pattern 2 x 4

Pattern 3 x 2

Pattern 4 x 2

Solo Starts

Patttern 4 x 3

Fade Out

Pattern 4 x 2

Thanks Opeth for making this song.





Comments


Popular Opeth tabs & chords
Ending Credits 2 Bass Tabs
The Funeral Portrait Bass Tabs
Soldier Of Fortune Chords
A Fair Judgement Tabs
April Ethereal Tabs
Deliverence Tabs
Hex Omega 1 Tabs
Hope Leaves 2 Tabs
In My Time Of Need 2 Tabs
Reverie Harlequin Forest Tabs


Song lyrics



↑ Back to top | Tablatures and chords are parodies/interpretations of the original songs. You may use it for private study, scholarship, research or language learning purposes only
© 2014 AZChords.com Contact us | Privacy policy | DMCA | Add/correct tabs | Request tabs | Top 50 tabs