» » »

Opeth, Patterns In The Ivy Ii Tabs (ver.1)

Artists:  A B C D E F G H I J K L M N O P Q R S T U V W X Y Z # 

Patterns In The Ivy Ii Tabs (ver.1)

Opeth Tabs
 Rating:
4/5 (4 votes)
Patterns In The Ivy Ii lessons Tabs too difficult? Try these video lessons and learn fast
1
                key:

/ - slide up
\ - slide down
p - pull off
h - hammer on
b - bend up
r - release bend



Intro/Verse Riff
|---------1------|-----9p1-----1-----|---------1------|----------------------|
|-----7-----7----|---------7-----7---|-----7-----7----|----------------------|
|---8---8-----8--|---8-------8-----8-|---8---8-----8--|-------8---7----------|
|-1--------------|-9-----------------|-7--------------|----/8---8---8\6------|
|----------------|-------------------|----------------|-1---------------8----|
|----------------|-------------------|----------------|----------------------|





Riff 2
|---------1------|-------1-----------|---------1------|-------1--------------|
|-------1---1----|-----1-------------|-------1---1----|-----1----------------|
|-----6-------6--|---6---------------|-----3-------3--|---3----------1-------|
|---8------------|-7-----------------|---5------------|-4--------------------|
|-1--------------|-------------------|----------------|----------/4----------|
|----------------|-------------------|----------------|----------------------|
|                                    |                                       |
|------------------------------------|---------------------------------------|
|--13-11-----------------------------|---------------------------------------|
|--------10***-----------------------|---------------------------------------|
|---------------------------------11-|-10--------------/15-------------------|
|------------------------------------|---------------13----------------------|
|------------------------------------|---------------------------------------|
***The timing for this part is slightly slower on the 2nd and 4th repeats.
   Just listen and you'll catch it easily.



Riff 3
|---------1------|----------------|---------1------|-----------------|
|-----4-----4----|------4------4--|-----4-----4----|----3------------|
|---1---1-----1--|------4------4--|---3---3-----3--|----3------------|
|----------------|----------------|----------------|----3------------|
|-2--------------|----------------|-1--------------|-1---------------|
|----------------|-4---------4----|----------------|-----------------|
|                                                                    | 
|----------------|----------------|----------------|-----------------|
|----------------|----------------|----------------|-----------------|
|----------------|----------------|----------------|-----------------|
|-15-------------|-13-------------|-13-------------|--12-------------|
|----------------|----------------|----------------|-----------------|
|----------------|----------------|----------------|-----------------|
|                                                                    |
|----------------|----------------|----------------|-----------------|
|----------------|----------------|----------------|-----------------|
|-13--------15---|----------------|----------------|-----------------|
|----------------|-16-------------|-16-------------|-15--------------|
|----------------|----------------|----------------|-----------------|
|----------------|----------------|----------------|-----------------|


Fill 1
|----------------|
|----------------|
|----------------|
|-15-15h16-13----|
|----------------|
|----------------|
|
|----17----15----|
|----------------|
|----------------|
|----------------|
|----------------|
|----------------|


Fill 2
|----------------|
|----------------|
|----------------|
|-15-15h16-13----|
|----------------|
|----------------|
|
|----------------|
|-15-15h16-------|
|-----------12---|
|----------------|
|----------------|
|----------------|



Riff 4
|---------------1--------------|---------------1--------------|
|---------4----------------4---|---------4----------------4---|
|-----5-----5------------1---1-|-----5-----5------------1---1-|
|---5---5-----5--------5-------|---5---5-----5--------5-------|
|-3------------------5---------|-3------------------5---------|
|------------------------------|------------------------------|

|---------------1--------------|---------------1--------------|
|---------4----------------4---|---------4----------------4---|
|-----1-----1------------1---1-|-----5-----5------------1---1-|
|---5---5-----5--------5-------|---5---5-----5--------5-------|
|--------------------1---------|-3------------------5---------|
|-1----------------------------|------------------------------|


Solo
|--------------------------------------|-------------------------------------|
|--------------------------------------|----------------------------------11-|
|--------------------------------------|--------------------/10--8--10b12----|
|----10-12-12h13--10-12b13--10h8p10----|-10-12-12h13p12--10------------------|
|-10--------------------------------10-|-------------------------------------|
|--------------------------------------|-------------------------------------|

|----------------------------|------------------------------------|
|----------------------------|------------------------------------|
|-10b12r10p8-10-8--7-8-------|---10--12-12/13-12-10--8-7----------|
|----------------------/10---|------------------------------------|
|----------------------------|------------------------------------|
|----------------------------|------------------------------------|


Outro Harmony
|---------------------------------------------------|
|---------------------------------------------------|
|-12----10----8----7--------------------------------|
|-----------------------10----8---------------------|
|---------------------------------/8----6----5------|
|---------------------------------------------------|
|                                                   |
|---------------------------------------------------|
|-13----11------------------------------------------|
|------------12----10----8----7---------------------|
|--------------------------------/10----8-----------|
|--------------------------------------------8------|
|---------------------------------------------------|
            
Submit corrections

comments powered by Disqus
↑ Back to top | Opeth Tabs for Patterns In The Ivy Ii. Lyrics for acoustic guitar and electric guitar. 1 Tablatures and chords are parodies/interpretations of the original songs. You may use it for private study, scholarship, research or language learning purposes only