>
 >
Deliverance

Deliverance Bass Tabs

Opeth - Deliverance chords, tabs, tablatures, lyrics

Guitar lessons | Add/correct | Request | Top 50 tabs Artists:  A B C D E F G H I J K L M N O P Q R S T U V W X Y Z 0-9

Deliverance Bass Tabs – Opeth

CD, Sheet music, Poster

Do you like Deliverance? Share with your friends now
Bass TabsBass Tabs v2Bass Tabs v3Tabs
Gtr I (E A D G) - 'Standard Tuning'



    Q=196
   4/4
    Gtr I
    E E E E E E E E E E E E E E E E E E E E E E E E E E E E     4x
||--------------------------------------------------------------||
||o------------------------------------------------------------o||
||o-7---7---7-----7---7---7-----7---7---7-----7---7---7--------o||
||----0---0---0-0---0---0---0-0---0---0---0-0---0---0---0-0-----||


  E Q Q Q E Q Q Q E Q Q Q E Q Q Q W        W
|-----------------------------------------------|
|-----------------------------------------------|
|-----------------------------------------------|
|---0-0-0---0-0-0---0-0-0---0-0-0---------------|


    Q=196
    Q Q E E E E E E E E E E E Q. Q E E E E E E E E E E Q
||----------------------------------------------------------|
||o---------------------------------------------------------|
||o---------------------------------------------------------|
||--2-2-0-0-2-0-0-2-0-0-2-0-0-2--2-0-0-2-0-0-2-0-0-2-0-0----|


  Q  Q  E  Q  Q  E E E E E E E H    Q E Q.  E Q   E E E
|-----------------------------------------------------------||
|----------------------------------------------------------o||
|/2--2----------/7-7-7-7-7-7-7-----------------------------o||
|----------0--0----------------0------7-6---4/2---5/4-0-----||


    Q Q E E E E E E E E E E E Q. Q E E E E E E E E E E Q
||----------------------------------------------------------|
||o---------------------------------------------------------|
||o---------------------------------------------------------|
||--2-2-0-0-2-0-0-2-0-0-2-0-0-2--2-0-0-2-0-0-2-0-0-2-0-0----|


  Q  Q  E  Q  Q  E E E E E E E H    Q E Q.  E Q   E E E
|-----------------------------------------------------------||
|----------------------------------------------------------o||
|/2--2----------/7-7-7-7-7-7-7-----------------------------o||
|----------0--0----------------0------7-6---4/2---5/4-0-----||


  E E E E E E E E E E E E E E W
|----------------------------------|
|---------------------------2------|
|---------------0-4-2---0-4--------|
|---0-2-0-3-5-0-------0-------0----|


  Q=160
  W W W W W W W W W    E W               W W W W E E E
|-------------------------------------------------------|
|-------------------------------------------------------|
|--------------------------------------------------7----|
|---------------------12-0-----------------------9---9--|


    H    Q  H    Q  H    Q  H    Q
||------------------------------------|
||o------5-------5-------5-------5----|
||o-7-------7-------7-------7---------|
||------------------------------------|


  H    Q  H    Q  H    Q  Q    H
|------------------------------9\-----||
|------5-------5-------5-------------o||
|-7-------7-------7-------7----------o||
|-------------------------------------||


  H    Q  H    Q  H    Q  H    Q
|-----------------------------------|
|------5-------5-------5-------5----|
|-7-------7-------7-------7---------|
|-----------------------------------|


  H    Q  H    Q  H    Q  H    Q
|--------------4---------------4----|
|------5---------------5------------|
|-7-------7-------7-------7---------|
|-----------------------------------|


    H    Q  H    Q  H    Q  H    Q
||-------------------------------------||
||o------5-------5-------5-------5----o||
||o-7-------7-------7-------7---------o||
||-------------------------------------||


  Q=196
  Q Q Q E Q Q Q E Q Q Q E Q Q Q E Q Q Q E Q Q Q E Q Q Q E Q Q Q Q
|--------------------------------------------------------------------|
|--------------------------------------------------------------------|
|--------------------------------------------------------------------|
|-2-2-2-0-2-2-2-0-2-2-2-0-2-2-2-0-2-2-2-0-2-2-2-0-2-2-2-0-3-3-3-3----|


    Q=160
    H    Q  H    Q  H    Q  H    Q
||------------------------------------|
||o------5-------5-------5-------5----|
||o-7-------7-------7-------7---------|
||------------------------------------|


  H    Q  H    Q  H    Q  Q    H
|------------------------------9\-----||
|------5-------5-------5-------------o||
|-7-------7-------7-------7----------o||
|-------------------------------------||


  H    Q  H    Q  H    Q  H    Q
|-----------------------------------|
|------5-------5-------5-------5----|
|-7-------7-------7-------7---------|
|-----------------------------------|


  H    Q  H    Q  H    Q  H    Q
|--------------4---------------4----|
|------5---------------5------------|
|-7-------7-------7-------7---------|
|-----------------------------------|


    H    Q  H    Q  H    Q  H    Q
||-------------------------------------||
||o------5-------5-------5-------5----o||
||o-7-------7-------7-------7---------o||
||-------------------------------------||


  Q=196
  Q Q Q E Q Q Q E Q Q Q E Q Q Q E Q Q Q E Q Q Q E Q Q Q E Q Q Q Q
|--------------------------------------------------------------------|
|--------------------------------------------------------------------|
|--------------------------------------------------------------------|
|-2-2-2-0-2-2-2-0-2-2-2-0-2-2-2-0-2-2-2-0-2-2-2-0-2-2-2-0-3-3-3-3----|


  Q Q Q E Q Q Q E Q Q Q E Q Q Q E Q Q Q E Q Q Q E Q Q Q E Q Q Q
|------------------------------------------------------------------|
|------------------------------------------------------------------|
|------------------------------------------------------------------|
|-0-0-0-0-0-0-0-0-0-0-0-0-0-0-0-0-0-0-0-0-0-0-0-0-0-0-0-0-0-0------|


    Q Q E E E E E E E E E E E Q. Q E E E E E E E E E E Q
||----------------------------------------------------------|
||o---------------------------------------------------------|
||o---------------------------------------------------------|
||--2-2-0-0-2-0-0-2-0-0-2-0-0-2--2-0-0-2-0-0-2-0-0-2-0-0----|


  Q  Q  E  Q  Q  E E E E E E E H    Q E Q.  E Q   E E E
|-----------------------------------------------------------||
|----------------------------------------------------------o||
|/2--2----------/7-7-7-7-7-7-7-----------------------------o||
|----------0--0----------------0------7-6---4/2---5/4-0-----||


    Q Q E E E E E E E E E E E Q. Q E E E E E E E E E E Q
||----------------------------------------------------------|
||o---------------------------------------------------------|
||o---------------------------------------------------------|
||--2-2-0-0-2-0-0-2-0-0-2-0-0-2--2-0-0-2-0-0-2-0-0-2-0-0----|


  Q  Q  E  Q  Q  E E E E E E E H    Q E Q.  E Q   E E E
|-----------------------------------------------------------||
|----------------------------------------------------------o||
|/2--2----------/7-7-7-7-7-7-7-----------------------------o||
|----------0--0----------------0------7-6---4/2---5/4-0-----||


  E E E E E E E E E E E E E E W                 W W W W
|-------------------------------------------------------|
|---------------------------2---------------------------|
|---------------0-4-2---0-4-----------------------------|
|---0-2-0-3-5-0-------0-------0-------------------------|


    Q Q Q E Q Q Q E Q Q Q E Q Q Q E Q Q Q E Q Q Q E Q Q Q E Q Q Q E    4x
||---------------------------------------------------------------------||
||o-------------------------------------------------------------------o||
||o-------------------------------------------------------------------o||
||--2-2-2-0-2-2-2-0-0-0-0-0-0-0-0-0-5-5-5-0-5-5-5-0-6-6-6-0-1-1-1-0----||


  W        W W       Q E E E E Q
|-----------------------------------|
|------------------------9----------|
|----------------------7---9-7-9----|
|-0------------------0--------------|


    Q.  E E E W      Q Q.  E E E W        Q E E  Q E E  Q E E  Q    E E E E  6x
||----------4------------------4---------------------------------------------||
||o-------2------------------2----------------------------------------------o||
||o-2---2-----0--------2---2-----0--------5-5-5--3-3-3--2-2-2--1----1-1---1-o||
||----------------------------------------------------------------------2----||


    Q  Q.  Q.  E E E E E E Q  Q  Q.  Q.  E E E E E E Q
||--------------------------------------------------------|
||o-------------------------------------------------------|
||o-------------------------------------------------------|
||--2--0---3---3-3-3-3-3-3-3--2--0---3---3-3-3-3-3-3-3----|


  Q  Q.  Q.  E E E E E E E E E E E E E E E E E E E E E E E E     4x
|----------------------------------------------------------------||
|---------------------------------------------------------------o||
|---------------------------------------------------------------o||
|-2--0---3---3-3-3-3-3-3-3-3-3-3-6-6-6-6-6-6-4-4-4-4-4-4-4-4-----||

    Q.  E E E W      Q Q.  E E E W        Q E E  Q E E  Q E E  Q    E E E E  6x
||----------4------------------4---------------------------------------------||
||o-------2------------------2----------------------------------------------o||
||o-2---2-----0--------2---2-----0--------5-5-5--3-3-3--2-2-2--1----1-1---1-o||
||----------------------------------------------------------------------2----||


    Q  Q.  Q.  E E E E E E Q  Q  Q.  Q.  E E E E E E Q
||--------------------------------------------------------|
||o-------------------------------------------------------|
||o-------------------------------------------------------|
||--2--0---3---3-3-3-3-3-3-3--2--0---3---3-3-3-3-3-3-3----|


  Q  Q.  Q.  E E E E E E E E E E E E E E E E E E E E E E E E     3x
|----------------------------------------------------------------||
|---------------------------------------------------------------o||
|---------------------------------------------------------------o||
|-2--0---3---3-3-3-3-3-3-3-3-3-3-6-6-6-6-6-6-4-4-4-4-4-4-4-4-----||


  Q  Q.  Q.  E E E E E E Q  Q  Q.  Q.  E E E E E E Q
|-------------------------------------------------------|
|-------------------------------------------------------|
|-------------------------------------------------------|
|-2--0---3---3-3-3-3-3-3-3--2--0---3---3-3-3-3-3-3-3----|


  Q  Q.  Q.  E E E E E E E E E E E E E E E E E E E E E Q  Q Q W
|------------------------------------------------------------------|
|------------------------------------------------------------------|
|------------------------------------------------------------------|
|-2--0---3---3-3-3-3-3-3-3-3-3-3-6-6-6-6-6-6-4-4-4-4-4-4--4--------|


    E E E E E E E E E E E E E E E E E E E E E E E E E E E E E E E E   12x
||---------------------------------------------------------------------||
||o-------------------------------------------------------------------o||
||o-------------------------------------------------------------------o||
||--0-0-0-0-0-0-0-0-0-0-0-0-0-0-0-0-0-0-0-0-0-0-0-0-0-0-0-0-0-0-0-0----||


  Q                              H. W W W
|-----------------------------------------|
|-----------------------------------------|
|-----------------------------------------|
|-0---------------------------------------|


    H.    Q.   Q.  Q  Q  H.    W          Q
||-----------------4--7--6-----5---------------|
||o------------5-------------------------------|
||o-------7------------------------------------|
||--0------------------------------------------|


  H.    Q.   Q.  Q  Q  W        W     6x
|-------------------------------------||
|------------4---5--7--8-------------o||
|-------7----------------------------o||
|-0-----------------------------------||


  Q=196
  W                    W W W W W W W W W W W W W W W
|----------------------------------------------------|
|----------------------------------------------------|
|----------------------------------------------------|
|-0--------------------------------------------------|


    E   E E E  Q. Q  E E E  E Q Q  E E E  Q.   Q   E E E  E E Q
||-----------------------------------------------------------------|
||o----------------------------------------------------------------|
||o----------------------------------------------------------------|
||-----12-0-0-12----12-0-0-12-0---12-0-0-12---12--12-0-0-12-0------|


  S S S S S S S S  Q.  Q E E  Q E E  Q E E  Q E E  Q E E  E E E  E E     4x
|------------------------------------------------------------------------||
|-----------------------------------------------------------------------o||
|-----------------------------------------------------------------------o||
|-0-0-0-0-0-0-0-0-12--12-0-0-12-0-0-12-0-0-12-0-0-12-0-0-12-0-0-12p0-----||


     E  E  E  E  E  E  E  E  E  E  E  E  E  E  E  E  E  E  E  E  E  E  E  E  E  E  E  E  E  E  E  E    4x
||-----------------------------------------------------------------------------------------------------||
||o---------------------------------------------------------------------------------------------------o||
||o---------------------------------------------------------------------------------------------------o||
||--12-12-12-12-12-12-12-12-12-12-12-12-12-12-12-12-12-12-12-12-12-12-12-12-12-12-12-12-12-12-12-12----||


    E   E E E  Q. Q  E E E  E Q Q  E E E  Q.   Q   E E E  E E Q
||-----------------------------------------------------------------|
||o----------------------------------------------------------------|
||o----------------------------------------------------------------|
||-----12-0-0-12----12-0-0-12-0---12-0-0-12---12--12-0-0-12-0------|


  S S S S S S S S  Q.  Q E E  Q E E  Q E E  Q E E  Q E E  E E E  E E     4x
|------------------------------------------------------------------------||
|-----------------------------------------------------------------------o||
|-----------------------------------------------------------------------o||
|-0-0-0-0-0-0-0-0-12--12-0-0-12-0-0-12-0-0-12-0-0-12-0-0-12-0-0-12p0-----||


     E  E  E  E  E  E  E  E  E  E  E  E  E  E  E  E  E  E  E  E  E  E  E  E  E  E  E  E  E  E  E  E    4x
||-----------------------------------------------------------------------------------------------------||
||o---------------------------------------------------------------------------------------------------o||
||o---------------------------------------------------------------------------------------------------o||
||--12-12-12-12-12-12-12-12-12-12-12-12-12-12-12-12-12-12-12-12-12-12-12-12-12-12-12-12-12-12-12-12----||


    E   E E E  Q. Q  E E E  E Q Q  E E E  Q.   Q   E E E  E E Q
||-----------------------------------------------------------------|
||o----------------------------------------------------------------|
||o----------------------------------------------------------------|
||-----12-0-0-12----12-0-0-12-0---12-0-0-12---12--12-0-0-12-0------|


  S S S S S S S S  Q.  Q E E  Q E E  Q E E  Q E E  Q E E  E E E  E E     4x
|------------------------------------------------------------------------||
|-----------------------------------------------------------------------o||
|-----------------------------------------------------------------------o||
|-0-0-0-0-0-0-0-0-12--12-0-0-12-0-0-12-0-0-12-0-0-12-0-0-12-0-0-12p0-----||


     E  E  E  E  E  E  E  E  E  E  E  E  E  E  E  E  E  E  E  E  E  E  E  E  E  E  E  E  E  E  E  E    4x
||-----------------------------------------------------------------------------------------------------||
||o---------------------------------------------------------------------------------------------------o||
||o---------------------------------------------------------------------------------------------------o||
||--12-12-12-12-12-12-12-12-12-12-12-12-12-12-12-12-12-12-12-12-12-12-12-12-12-12-12-12-12-12-12-12----||


    E   E E E  Q. Q  E E E  E Q Q  E E E  Q.   Q   E E E  E E Q
||-----------------------------------------------------------------|
||o----------------------------------------------------------------|
||o----------------------------------------------------------------|
||-----12-0-0-12----12-0-0-12-0---12-0-0-12---12--12-0-0-12-0------|


  S S S S S S S S  Q.  Q E E  Q E E  Q E E  Q E E  Q E E  E E E  E E     4x
|------------------------------------------------------------------------||
|-----------------------------------------------------------------------o||
|-----------------------------------------------------------------------o||
|-0-0-0-0-0-0-0-0-12--12-0-0-12-0-0-12-0-0-12-0-0-12-0-0-12-0-0-12p0-----||





Comments


Popular Opeth tabs & chords
Deliverance 3 Bass Tabs
Harvest 1 Chords
Closure Tabs
Heir Apparent Intro Tabs
Hex Omega Intro Tabs
Hope Leaves 2 Tabs
In My Time Of Need 1 Tabs
Moonlapse Vertigo Tabs
Nepenthe 2 Tabs
Windowpane 3 Tabs


Song lyrics



↑ Back to top | Tablatures and chords are parodies/interpretations of the original songs. You may use it for private study, scholarship, research or language learning purposes only
© 2014 AZChords.com Contact us | Privacy policy | DMCA | Add/correct tabs | Request tabs | Top 50 tabs