>
 >
Deliverance

Deliverance Guitar Tabs

Opeth - Deliverance chords, tabs, tablatures, lyrics

Guitar lessons | Add/correct | Request | Top 50 tabs Artists:  A B C D E F G H I J K L M N O P Q R S T U V W X Y Z 0-9

Deliverance Guitar Tabs – Opeth

CD, Sheet music, Poster

Do you like Deliverance? Share with your friends now
Bass TabsBass Tabs v2Bass Tabs v3Tabs
Opeth
"Deliverance"

    Legend 
    ..  - palm mute         
     /  - slide up to
     \  - slide down to      
     h  - hammer on                       Bends
     p  - pull off            f - full bend    h - half bend
     b  - bend                r - release      t - tap bend
     ph - pinch harmonic     ~  - vibrato      ~ - vibrato bend
     *  - see comment           
     X  - percussion mute       
     @  - slight palm mute     
     () - ghost note, sustained note

Tune Gtr to (EADGBE)

Riff A

|-----------------------------|
|-----------------------------|
|-----------------------------|
|-8---8---8-----8---8---8-----|
|-7---7---7-----7---7---7-----|
|---0---0---0-0---0---0---0-0-|


Riff A Lead 1

|-----------------------------|
|-5-5-5-5-5-5-5-5-5-5-5-5-5-5-|
|-----------------------------|
|-----------------------------|
|-----------------------------|
|-----------------------------|


Riff A Lead 2

|-6-6-6-6-6-6-6-6-6-6-6-6-6-6-|
|-----------------------------|
|-----------------------------|
|-----------------------------|
|-----------------------------|
|-----------------------------|


Riff B (W/Riff A Leads)

|-----------------------------|
|-----------------------------|
|-----------------------------|
|-2---2---2-----2---2---2-----|
|-2---2---2-----2---2---2-----|
|-0---0---0-----0---0---0-----|


Riff C

|--------------------------------------------------------------------------------
|--------------------------------------------------------------------------------
|---------------------------------------------------------------------9-9-9---9--
|-------------------------------------------------8h9-9--------------------------
|-3---3-------------------3---3-------------------7---7-----2---2-----7-7-7---7--
|-2---2---0-0-2p0-0-2p0-0-2---2---0-0-2p0-0-2p0-0-----------0---0----------------


---------------------------------|
---------------------------------|
---------0-----------------------|
-----6-----6---------------------|
---7---7-----7-----7-------3-----|
-0-------------6-----6-2-----2-0-|

Transition 1

|------------------------------|
|------------------------------|
|------------------------------|
|---------------------------2~-|
|-------2---2/4-6-4-----5/8-2--|
|-0-1/4---4---------7/8-----0--|


Riff D GTR 1

|---------------------------------------------------------|
|---------------------------------------------------------|
|-----2-----2-------2-----2-------2-----2-------2-----2---|
|---------5-------------5-------------5-------------5-----|
|---------------------------------------------------------|
|-0-------------0-------------0-------------0-------------|


Riff D GTR 2                                             

|---------------------------------------------------------|
|---------0-------------0-------------0-------------0-----|
|---------0-------------0-------------0-------------0-----|
|-----7-----7-------7-----7-------7-----7-------7-----7---|
|---------------------------------------------------------|
|-0-------------0-------------0-------------0-------------|


Riff D Lead 1

|----------------------------------------------------------
|----------------------------------------------------------
|----------------------------------------------------------
|-----------------------------9~---------------------------
|---------------------------------------------------10-----
|----------------------------------------------------------


---------------------------------------------------------
---------------------------------------------------------
---------------------------------------------------11----
-------------------------------------------------12--12--
-9~--------------------------------------------14------14
---------------------------------------------------------


---------------------------------------------------------
---------------------------------------------------------
---------------------------------------------------------
-14~-----------------------------------------------------
---------------------------------------------------------
---------------------------------------------------------


---------------------------------------------------------
---------------------------------------------------------
---------------------------------------------------11----
(14~)--------------------------------------------12--12--
-----------------------------------------------14------14
---------------------------------------------------------


---------------------------------------------------------|
---------------------------------------------------------|
-11/12~--------------------------------------------11----|
-------------------------------------------------12--12--|
-----------------------------------------------14------14|
---------------------------------------------------------|



Riff D Lead 2 (Walk with me...)

|---------------------------------------------------------
|---------------------------------------------------------
|---------------------------------------------------------
|-14~-----------------------------------------------------
|---------------------------------------------------------
|---------------------------------------------------------


----------------------------------------------------------
---------------------------------------------------------
---------------------------------------------------11----
(14~)--------------------------------------------12--12--
-----------------------------------------------14------14
---------------------------------------------------------


----------------------------------------------------------
---------------------------------------------------------
---------------------------------------------------------
(14~)----------------------------------------------------
---------------------------------------------------------
---------------------------------------------------------


---------------------------------------------------------|
---------------------------------------------------------|
---------------------------------------------------------|
(14~)----------------------------------------------------|
---------------------------------------------------------|
---------------------------------------------------------|


Riff E

|---------------------------------------------------------
|---------------------------------------------------------
|---------------------------------------------------------
|-4---4---4-----4---4---4-----4---4---4-----4---4---4-----
|---------------------------------------------------------
|-2---2---2-----2---2---2-----2---2---2-----2---2---2-----


---------------------------------------------------------|
---------------------------------------------------------|
---------------------------------------------------------|
-4---4---4-----4---4---4-----4---4---4-----5---5---5-----|
---------------------------------------------------------|
-2---2---2-----2---2---2-----2---2---2-----3---3---3-----|


Riff D Again

|---------------------------------------------------------|
|---------------------------------------------------------|
|-----2-----2-------2-----2-------2-----2-------2-----2---|
|---------5-------------5-------------5-------------5-----|
|---------------------------------------------------------|
|-0-------------0-------------0-------------0-------------|
                                                        

|---------------------------------------------------------|
|---------0-------------0-------------0-------------0-----|
|---------0-------------0-------------0-------------0-----|
|-----7-----7-------7-----7-------7-----7-------7-----7---|
|---------------------------------------------------------|
|-0-------------0-------------0-------------0-------------|



Riff D Lead 3 (with Lead 2 on another guitar)

|---------------------------------------------------------
|-12~-------------------15---\7~--------------------5-----
|---------------------------------------------------------
|---------------------------------------------------------
|---------------------------------------------------------
|---------------------------------------------------------


---------------------------------------------------------
/10~-------------------12--------------------------------
-----------------------------12\11-----------------------
---------------------------------------------------------
---------------------------------------------------------
---------------------------------------------------------


---------------------------------------------------------
-12~-------------------15---\7~--------------------5-----
---------------------------------------------------------
---------------------------------------------------------
---------------------------------------------------------
---------------------------------------------------------


---------------------------------------------------------|
/10~-------------------8-----8\7-5~----------------------|
---------------------------------------------------------|
---------------------------------------------------------|
---------------------------------------------------------|
---------------------------------------------------------|


Riff E Again

Riff B Again

Riff C Again



Transition 1 Again

|------------------------------|
|------------------------------|
|------------------------------|
|--------------------------(9)~|
|-------2---2/4-6-4-----5/8-2--|
|-0-1/4---4---------7/8-----0--|



Riff F With Solo

|---------------------------------------------------------
|---------------------------------------------------------
|---------------------------------------------------------
|-4---4---4-----4---4---4-----5---5---5-----5---5---5-----
|-----------------------------2---2---2-----2---2---2-----
|-2---2---2-----2---2---2-----0---0---0-----0---0---0-----


---------------------------------------------------------|
---------------------------------------------------------|
---------------------------------------------------------|
-7---7---7-----7---7---7-----8---8---8-----3--3---3------|
---------------------------------------------------------|
-5---5---5-----5---5---5-----6---6---6-----1--1---1------|


Solo

|---------------------------------------------------------
|---------------------------------------------------------
|-11--12--15--12h15p12-11h12p11---11----------------------
|------------------------------14----14--11h12p11---------
|------------------------------------------------14~------
|---------------------------------------------------------


---------------------------------------------------------
---------------------------------------------------------
---------------------------------------------------------
-12---12---11---9----------------------------------------
--------------------13---9---10---9---7------------7-----
---------------------------------------------------------


---------------------------------------------------------
-------------------------------8-----8h10-11-10----------
----------------------7h9---9-----9----------------------
-7~------------10----------------------------------------
---------------------------------------------------------
---------------------------------------------------------


-13-p-10-------------------------------------------------
----------12------------------------9--------------------
--------------10----------------10-----10----------------
------------------9-----7-h-10-------------11--10--------
---------------------------------------------------------
---------------------------------------------------------


---------------------------------------------------------
---------------------------------------------------------
---------------------------------------------------------
-8~---------------------------8-----9----8--------8------
----------------------------------------------9----------
---------------------------------------------------------


---------------------------------------------------------
---------------------------------------------------------
---------------------------------------------------------
-9~---------------------------9-----12---11---9----8-----
---------------------------------------------------------
---------------------------------------------------------


---------------------------------------------------------
---------------------------------------------------------
-------------------------------12-p-11------11--12p-11~--
-11~---11-h-14-p-11~--------------------14---------------
---------------------------------------------------------
---------------------------------------------------------


-----------------------------10--13--10------------------
-------------11----------11--------------11--13--10--12--
---------10------9-h-10----------------------------------
-----11--------------------------------------------------
-13------------------------------------------------------
---------------------------------------------------------


---------------------------------------------------------|
---------------------------------------------------------|
-11~-----------------------------------------------------|
---------------------------------------------------------|
---------------------------------------------------------|
---------------------------------------------------------|



|---------------------------------------------------------
|---------------------------------------------------------
|---------------------------------------------------------
|-4---4---4-----4---4---4-----5---5---5-----5---5---5-----
|-----------------------------2---2---2-----2---2---2-----
|-2---2---2-----2---2---2-----0---0---0-----0---0---0-----


---------------------------------------------------------
---------------------------------------------------------
---------------------------------------------------------
-7---7---7-----7---7---7-----8---8---8-----3--3--3-3-2~--
-----------------------------------------------------2---
-5---5---5-----5---5---5-----6---6---6-----1--1--1-1-0---


---------------------------------------------------|
---------------------------------------------------|
---------------------------------------------------|
-(2)~--------------------------------5--5--7--7----|
-(2)---------------------------------6--6--5--5----|
-(0)---------------------------0-0-0---------------|




Riff G
    
|----------------------------------------------------------------
|----------------------------------------------------------------
|-4-----4-4---4-----------4-------4-----4-4---4-----------4------
|-4-----4-4-x-4-----------4-------4-----4-4-x-4-----------4------
|-2-----2-2-x-0-----------0-------2-----2-2-x-0-----------0------
|----------------------------------------------------------------

   
-7---7-7---x-7-7-7-7-x-5-5-5-5---x-3-3-3-3-x-x-3-3-x-x----------|
-5---5-5---x-3-3-3-3-x-2-2-2-2---x-1-1-1-1-x-x-1-1-x-x-010---0--|
-----------------------------------1-1-1-1-----1-1---------3----|


Lead

|----------------------------------------------------------------
|----------------------------------------------------------------
|-9~----------11~-------7~------------9~--------6~---------------
|----------------------------------------------------------------
|----------------------------------------------------------------
|----------------------------------------------------------------


-10~---------9~--------14~-----------12~-------10~--------------|


Riff H

|---------------------------------------------------------------
|---------------------------------------------------------------
|---------------------------------------------------------------
|-4-----------------------------4-------------------------------
|-4-----4-----2-----2-2-2-2-2-2-4-----4-----2-----2-2-2-2-2-2-2-
|-2-----0-----3-----3-3-3-3-3-3-2-----0-----3-----3-3-3-3-3-3-3-


-4-----------------------------7-7-7-7-7-7-5-5-5-5-5-5-5-5-5-5-|
-4-----4-----2-----2-2-2-2-2-2-8-8-8-8-8-8-6-6-6-6-6-6-6-6-6-6-|
-2-----0-----3-----3-3-3-3-3-3---------------------------------|


Last repeat

-4-----------------------------7-7-7-7-7-7-5---------5---5-----|
-4-----4-----2-----2-2-2-2-2-2-8-8-8-8-8-8-6---------6---6-----|
-2-----0-----3-----3-3-3-3-3-3-----------------0-0-0-----------|


Riff I

|---------------------------------------------------------------|
|---------------------------------------------------------------|
|---------------------------------------------------------------|
|---------------------------------------------------------------|
|-----------------------------------------------------------5h7-|
|-0-0-0-0-0-0-0-0-0-0-0-0-0-0-0-0-0-0-0-0-0-0-0-0-0-030-5h6-----|


Riff J

|-----------------------------------------------------------------
|-------0-------------------------------0-----------0-----------0-
|-----0---0-------0-----0---0---0-----0---0-------0---0-------0---
|---2-------2---2-----2-------------2-------2---2-------2---2-----
|-----------------------------0---4-----------3-----------3-------
|-0-----------0-----2-----3---------------------------------------


---------------------------------------gtr 2---------------------|
-------0-------------------------------13----13----13----13------|
-----0---0-------0-----0---0---0-------13----13----13----13------|
---2-------2---2-----2-------------------------------------------|
-----------------------------0---1~------------------------------|
-0-----------0-----2-----3---------------------------------------|


Outro Lead

|-7-----6-----4-----4-----4---4---7-----6-----4-----4-----4---4---
|---0-0---0-0---0-0---0-0---0---0---0-0---0-0---0-0---0-0---0---0-
|-----------------------------------------------------------------
|-----------------------------------------------------------------
|-----------------------------------------------------------------
|-----------------------------------------------------------------


-3-----3-----0-----0-----0---0---3-----4-----0-----0-----0---0---|
---0-0---0-0---0-0---0-0---0---0---0-0---0-0---0-0---0-0---0---0-|


Outro Rhythm

|-----------------------------------------------------------------
|-----------------------------------------------------------------
|-----------------------------------------------------------------
|-----------------------------------------------------------------
|---2-2-2-2---------2-2-2-2-2-------2-2-2-2-----2---2-2-2-2-2-----
|---0-0-0-0---------0-0-0-0-0-------0-0-0-0-----0---0-0-0-0-0-----


-222222222-----2---2-2-2---2-2-2---2-2-2---2-2-2---2-2-2-2-2-2---|
-000000000-----0---0-0-0---0-0-0---0-0-0---0-0-0---0-0-0-0-0-0---|


2nd Outro Lead

|-----------------------------------------------------------------|
|-12----11----8-----9~------------12----11----8-----9-------------|
|-----------------------------------------------------------------|
|-----------------------------------------------------------------|
|-----------------------------------------------------------------|
|-----------------------------------------------------------------|


2nd Outro Rhythm

|-----------------------------------------------------------------|
|-----------------------------------------------------------------|
|-----------------------------------------------------------------|
|-2-2-2-2-2-2-2-2-2-2-2-2-2-2-2-2-2-2-2-2-2-2-2-2-2-2-2-2-2-2-2-2-|
|-----------------------------------------------------------------|
|-----------------------------------------------------------------|

Play first outro Rhythm again. Over and out.

Any questions??





Comments


Popular Opeth tabs & chords
Face Of Melinda Bass Tabs
Forest Of October Bass Tabs
Grand Conjuration Bass Tabs
Hours Of Wealth Bass Tabs
To Bid You Farewell 2 Bass Tabs
Ghost Of Perdition 2 Tabs
Ghost Of Perdition 4 Tabs
Hex Omega 1 Tabs
Isolation Years Tabs
Patterns In The Ivy Tabs


Song lyrics



↑ Back to top | Tablatures and chords are parodies/interpretations of the original songs. You may use it for private study, scholarship, research or language learning purposes only
© 2014 AZChords.com Contact us | Privacy policy | DMCA | Add/correct tabs | Request tabs | Top 50 tabs