» » »

Opeth, Death Whispered A Lullaby Tabs (ver.1)

Artists:  A B C D E F G H I J K L M N O P Q R S T U V W X Y Z # 

Death Whispered A Lullaby Tabs (ver.1)

Opeth Tabs
Rating:
0/5 (0 votes)
Hard to play? Try these video lessons and learn fast.
                Opeth - Death Whispered a Lullaby





Verse - Played on an acoustic guitar
|------------------------
|------------------------
|----------0-----------2-
|-----4------4-------2---
|---4---4------4---2-----
|-2--------------3-------


Interlude/Pre-chorus

Riff 1 (Lead)- Clean tone electric guitar
|---------------------------------------------------
|---------------------------------------------------
|---------------------------------------------------
|-4-4/7--9-11---14-11--9h11p9-9---------------------
|-------------------------------12p11-9-------------
|---------------------------------------12h14p9-7h9-

Chorus

Rhythm (Strum these chords)
"Oh.............Sleep my child"
|-------------------------------------
|-------------------------------------
|---------------5---------------7-5---
|-7-------------5---------------7-5-5-
|-7-------------3---------------5-3-5-
|-5---------------------------------3-

Ok, those are the pretty important riffs. I'll post the rest another time.
            

comments powered by Disqus
↑ Back to top | Opeth Tabs for Death Whispered A Lullaby. Lyrics for acoustic guitar and electric guitar. Tablatures and chords are parodies/interpretations of the original songs. You may use it for private study, scholarship, research or language learning purposes only