>
 >
Death Whispered A Lullaby

Death Whispered A Lullaby Bass Tabs

Opeth - Death Whispered A Lullaby chords, tabs, tablatures, lyrics

Guitar lessons | Add/correct | Request | Top 50 tabs Artists:  A B C D E F G H I J K L M N O P Q R S T U V W X Y Z 0-9

Death Whispered A Lullaby Bass Tabs – Opeth

CD, Sheet music, Poster

Do you like Death Whispered A Lullaby? Share with your friends now
Bass TabsBass Tabs v2Tabs


Tuning: E A D G

  Q=150
 4/4

  W          W          W          W
|----------|----------|----------|------|
|----------|----------|----------|------|
|----------|----------|----------|------|
|----------|----------|----------|------|


  W          W          W          W
|----------|----------|----------|------|
|----------|----------|----------|------|
|----------|----------|----------|------|
|----------|----------|----------|------|


  H    Q.   E   +W           H    Q.   E   +W
|-------------|------------|-------------|--------|
|-------------|------------|-------------|--------|
|-----------0-|-(0)--------|-------------|--------|
|-2----3------|------------|-2----3----0-|-(0)----|


  H    Q.   E   +W           H    Q.   E   +W
|-------------|------------|-------------|--------|
|-------------|------------|-------------|--------|
|-----------0-|-(0)--------|-------------|--------|
|-2----3------|------------|-2----3----0-|-(0)----|


  H    Q.   E   +W           H    Q.   E   +W
|-------------|------------|-------------|--------|
|-------------|------------|-------------|--------|
|-----------0-|-(0)--------|-------------|--------|
|-2----3------|------------|-2----3----0-|-(0)----|


  H    Q.   E   +W           H    Q.   E   +W
|-------------|------------|-------------|--------|
|-------------|------------|-------------|--------|
|-----------0-|-(0)--------|-------------|--------|
|-2----3------|------------|-2----3----0-|-(0)----|


  H    Q.   E   +W           H    Q.   E   +W
|-------------|------------|-------------|--------|
|-------------|------------|-------------|--------|
|-------------|------------|-------------|--------|
|-2----2----3-|-(3)--------|-2----2----3-|-(3)----|


  H    Q.   E   +W           H    Q.   E   +W
|-------------|------------|-------------|--------|
|-------------|------------|-------------|--------|
|-------------|------------|-------------|--------|
|-2----2----3-|-(3)--------|-2----2----3-|-(3)----|


  H.      E E   +Q.   E E E Q    Q.   E +E  E Q    +E  E +Q   E E Q
|-------------|----------------|-2------------0--|-(0)---------------|
|-----------1-|-(1)---1---1-1--|------1-(1)-0----|-----0-(0)---------|
|-0-------3---|----------------|-----------------|------------3-2-0--|
|-------------|----------------|-----------------|-------------------|


  H.      E E   +Q.   E E E Q    Q.   E +E  E Q    +E  E +Q   E E Q
|-------------|----------------|-2------------0--|-(0)---------------|
|-----------1-|-(1)---1---1-1--|------1-(1)-0----|-----0-(0)---------|
|-0-------3---|----------------|-----------------|------------3-2-0--|
|-------------|----------------|-----------------|-------------------|


  H.      E E   +Q.   E E E Q    Q.   E +E  E Q    +E  E +Q   E E Q
|-------------|----------------|-2------------0--|-(0)---------------|
|-----------1-|-(1)---1---1-1--|------1-(1)-0----|-----0-(0)---------|
|-0-------3---|----------------|-----------------|------------3-2-0--|
|-------------|----------------|-----------------|-------------------|


  H.      E E   +Q.   E E E Q    Q.   E +E  E Q    +E  E +Q   E E Q
|-------------|----------------|-2------------0--|-(0)---------------|
|-----------1-|-(1)---1---1-1--|------1-(1)-0----|-----0-(0)---------|
|-0-------3---|----------------|-----------------|------------3-2-0--|
|-------------|----------------|-----------------|-------------------|


  H    Q.   E   +Q.   E +Q   Q    Q.   E Q.   E   Q.   E E E Q
|-------------|-----------------|---------------|---------------|
|-------------|-----------------|---------------|-0----0--------|
|-3----2----1-|-(1)---0-(0)--0--|---------------|--------3-5-3--|
|-------------|-----------------|-2----2-2----2-|---------------|


  H    Q.   E   +Q   Q  +E  E +E  E   E E +E  E Q  E E   +E  E Q  E  E Q
|-------------|---------------------|------------------|------------------|
|-4----3----2-|-(2)--1--(1)-0-(0)---|------------------|------------------|
|-------------|-------------------3-|---0-(0)-0-0--5-6-|-(6)-6-6----------|
|-------------|---------------------|-3----------------|----------8-10-8--|


  E E +E  E Q  E E   +E  E Q  E  E Q    E E +E  E Q  E E   +E  E Q  E  E Q
|------------------|------------------|------------------|------------------|
|------------------|------------------|------------------|------------------|
|---0-(0)-0-0--5-6-|-(6)-6-6----------|---0-(0)-0-0--5-6-|-(6)-6-6----------|
|-3----------------|----------8-10-8--|-3----------------|----------8-10-8--|


  E E +E  E Q  E E   +E  E Q  E  E Q    H    Q.   E   +W
|------------------|------------------|-------------|--------|
|------------------|------------------|-------------|--------|
|---0-(0)-0-0--5-6-|-(6)-6-6----------|-----------0-|-(0)----|
|-3----------------|----------8-10-8--|-2----3------|--------|


  H    Q.   E   +W           H    Q.   E   +W
|-------------|------------|-------------|--------|
|-------------|------------|-------------|--------|
|-------------|------------|-----------0-|-(0)----|
|-2----3----0-|-(0)--------|-2----3------|--------|


  H    Q.   E   +W           H    Q.   E   +W
|-------------|------------|-------------|--------|
|-------------|------------|-------------|--------|
|-------------|------------|-----------0-|-(0)----|
|-2----3----0-|-(0)--------|-2----3------|--------|


  H    Q.   E   +W           H    Q.   E   +W
|-------------|------------|-------------|--------|
|-------------|------------|-------------|--------|
|-------------|------------|-----------0-|-(0)----|
|-2----3----0-|-(0)--------|-2----3------|--------|


  H    Q.   E   +W           H    Q.   E   +W
|-------------|------------|-------------|--------|
|-------------|------------|-------------|--------|
|-------------|------------|-------------|--------|
|-2----3----0-|-(0)--------|-2----2----3-|-(3)----|


  H    Q.   E   +W           H    Q.   E   +W
|-------------|------------|-------------|--------|
|-------------|------------|-------------|--------|
|-------------|------------|-------------|--------|
|-2----2----3-|-(3)--------|-2----2----3-|-(3)----|


  H    Q.   E   +W           H.      E E   +Q.   E E E Q
|-------------|------------|-------------|----------------|
|-------------|------------|-----------1-|-(1)---1---1-1--|
|-------------|------------|-0-------3---|----------------|
|-2----2----3-|-(3)--------|-------------|----------------|


  Q.   E +E  E Q    +E  E +Q   E E Q    H.      E E   +Q.   E E E Q
|-2------------0--|-(0)---------------|-------------|----------------|
|------1-(1)-0----|-----0-(0)---------|-----------1-|-(1)---1---1-1--|
|-----------------|------------3-2-0--|-0-------3---|----------------|
|-----------------|-------------------|-------------|----------------|


  Q.   E +E  E Q    +E  E +Q   E E Q    H.      E E   +Q.   E E E Q
|-2------------0--|-(0)---------------|-------------|----------------|
|------1-(1)-0----|-----0-(0)---------|-----------1-|-(1)---1---1-1--|
|-----------------|------------3-2-0--|-0-------3---|----------------|
|-----------------|-------------------|-------------|----------------|


  Q.   E +E  E Q    +E  E +Q   E E Q    H.      E E   +Q.   E E E Q
|-2------------0--|-(0)---------------|-------------|----------------|
|------1-(1)-0----|-----0-(0)---------|-----------1-|-(1)---1---1-1--|
|-----------------|------------3-2-0--|-0-------3---|----------------|
|-----------------|-------------------|-------------|----------------|


  Q.   E +E  E Q    +E  E +Q   E E Q    H    Q.   E   +Q.   E +Q   Q
|-2------------0--|-(0)---------------|-------------|-----------------|
|------1-(1)-0----|-----0-(0)---------|-------------|-----------------|
|-----------------|------------3-2-0--|-3----2----1-|-(1)---0-(0)--0--|
|-----------------|-------------------|-------------|-----------------|


  Q.   E Q.   E   Q.   E E E Q    H    Q.   E   +Q   Q  +E  E +E  E
|---------------|---------------|-------------|---------------------|
|---------------|-0----0--------|-4----3----2-|-(2)--1--(1)-0-(0)---|
|---------------|--------3-5-3--|-------------|-------------------3-|
|-2----2-2----2-|---------------|-------------|---------------------|


  E E +E  E Q  E E   +E  E Q  E  E Q    E E +E  E Q  E E   +E  E Q  E  E Q
|------------------|------------------|------------------|------------------|
|------------------|------------------|------------------|------------------|
|---0-(0)-0-0--5-6-|-(6)-6-6----------|---0-(0)-0-0--5-6-|-(6)-6-6----------|
|-3----------------|----------8-10-8--|-3----------------|----------8-10-8--|


  H    Q.   E   +Q.   E +E  E Q    H    Q.   E   +Q.   E +E  E Q
|-------------|------------------|-------------|------------------|
|-------------|------------------|-------------|------------------|
|-------------|------------------|-5----5----5-|-(5)---------5----|
|-5----5----5-|-(5)---5-(5)-5-5--|-------------|-------5-(5)---3--|


  Q  E E +E  E Q    +Q.   E +Q   E E   Q  E E +E  E Q    E E +E  E +E  E Q
|-----------------|------------------|-----------------|--------------------|
|-----------------|------------------|-----------------|-----------------5--|
|-3--0-1-(1)-0----|------------------|-3--0-1-(1)-0----|---------0-(0)-5----|
|--------------3--|-(3)---3-(3)--3-3-|--------------3--|-1-3-(3)------------|


  H    Q.   E   +Q.   E +E  E Q    H    Q.   E   +Q.   E +E  E Q
|-------------|------------------|-------------|------------------|
|-------------|------------------|-------------|------------------|
|-------------|------------------|-5----5----5-|-(5)---------5----|
|-5----5----5-|-(5)---5-(5)-5-5--|-------------|-------5-(5)---3--|


  Q  E E +E  E Q    +Q.   E +Q   E E   Q  E E +E  E Q    E E +E  E +E  E Q
|-----------------|------------------|-----------------|--------------------|
|-----------------|------------------|-----------------|-----------------5--|
|-3--0-1-(1)-0----|------------------|-3--0-1-(1)-0----|---------0-(0)-5----|
|--------------3--|-(3)---3-(3)--3-3-|--------------3--|-1-3-(3)------------|


  W          +W           +W           H    Q.   E
|----------|------------|------------|-------------|
|----------|------------|------------|-------------|
|----------|------------|------------|-----------0-|
|-5--------|-(5)--------|-(5)--------|-2----3------|


  +W           H    Q.   E   +W           H    Q.   E
|------------|-------------|------------|-------------|
|------------|-------------|------------|-------------|
|-(0)--------|-----------0-|-(0)--------|-----------0-|
|------------|-2----3------|------------|-2----3------|


  +W           H    Q.   E   +W           H    Q.   E
|------------|-------------|------------|-------------|
|------------|-------------|------------|-------------|
|-(0)--------|-------------|------------|-------------|
|------------|-2----3----0-|-(0)--------|-2----3----0-|


  +W           H    Q.   E   +W           H    Q.   E
|------------|-------------|------------|-------------|
|------------|-------------|------------|-------------|
|------------|-------------|------------|-------------|
|-(0)--------|-2----3----0-|-(0)--------|-2----3----0-|


  +W           H    Q.   E   +W           H    Q.   E
|------------|-------------|------------|-------------|
|------------|-------------|------------|-------------|
|------------|-------------|------------|-------------|
|-(0)--------|-2----3----0-|-(0)--------|-2----3----0-|


  +W           H    Q.   E   +W           H    Q.   E
|------------|-------------|------------|-------------|
|------------|-------------|------------|-------------|
|------------|-------------|------------|-------------|
|-(0)--------|-2----3----0-|-(0)--------|-2----3----0-|


  +W           H.      E E   +Q.   E E E Q    Q.   E +E  E Q
|------------|-------------|----------------|-2------------0--|
|------------|-----------1-|-(1)---1---1-1--|------1-(1)-0----|
|------------|-0-------3---|----------------|-----------------|
|-(0)--------|-------------|----------------|-----------------|


  +E  E +Q   E E Q    H.      E E   +Q.   E E E Q    Q.   E +E  E Q
|-(0)---------------|-------------|----------------|-2------------0--|
|-----0-(0)---------|-----------1-|-(1)---1---1-1--|------1-(1)-0----|
|------------3-2-0--|-0-------3---|----------------|-----------------|
|-------------------|-------------|----------------|-----------------|


  +E  E +Q   E E Q    H.      E E   +Q.   E E E Q    Q.   E +E  E Q
|-(0)---------------|-------------|----------------|-2------------0--|
|-----0-(0)---------|-----------1-|-(1)---1---1-1--|------1-(1)-0----|
|------------3-2-0--|-0-------3---|----------------|-----------------|
|-------------------|-------------|----------------|-----------------|


  +E  E +Q   E E Q    H.      E E   +Q.   E E E Q    Q.   E +E  E Q
|-(0)---------------|-------------|----------------|-2------------0--|
|-----0-(0)---------|-----------1-|-(1)---1---1-1--|------1-(1)-0----|
|------------3-2-0--|-0-------3---|----------------|-----------------|
|-------------------|-------------|----------------|-----------------|


  +E  E +Q   E E Q    H    Q.   E   +Q.   E +Q   Q    Q.   E Q.   E
|-(0)---------------|-------------|-----------------|---------------|
|-----0-(0)---------|-------------|-----------------|---------------|
|------------3-2-0--|-3----2----1-|-(1)---0-(0)--0--|---------------|
|-------------------|-------------|-----------------|-2----2-2----2-|


  Q.   E E E Q    H    Q.   E   +Q   Q  +E  E +E  E   E E +E  E Q  E E
|---------------|-------------|---------------------|------------------|
|-0----0--------|-4----3----2-|-(2)--1--(1)-0-(0)---|------------------|
|--------3-5-3--|-------------|-------------------3-|---0-(0)-0-0--5-6-|
|---------------|-------------|---------------------|-3----------------|


  +E  E Q  E  E Q    E E +E  E Q  E E   +E  E Q  E  E Q    H    Q.   E
|------------------|------------------|------------------|-------------|
|------------------|------------------|------------------|-------------|
|-(6)-6-6----------|---0-(0)-0-0--5-6-|-(6)-6-6----------|-------------|
|----------8-10-8--|-3----------------|----------8-10-8--|-5----5----5-|


  +Q.   E +E  E Q    H    Q.   E   +Q.   E +E  E Q    Q  E E +E  E Q
|------------------|-------------|------------------|-----------------|
|------------------|-------------|------------------|-----------------|
|------------------|-5----5----5-|-(5)---------5----|-3--0-1-(1)-0----|
|-(5)---5-(5)-5-5--|-------------|-------5-(5)---3--|--------------3--|


  +Q.   E +Q   E E   Q  E E +E  E Q    E E +E  E +E  E Q    H    Q.   E
|------------------|-----------------|--------------------|-------------|
|------------------|-----------------|-----------------5--|-------------|
|------------------|-3--0-1-(1)-0----|---------0-(0)-5----|-------------|
|-(3)---3-(3)--3-3-|--------------3--|-1-3-(3)------------|-5----5----5-|


  +Q.   E +E  E Q    H    Q.   E   +Q.   E +E  E Q    Q  E E +E  E Q
|------------------|-------------|------------------|-----------------|
|------------------|-------------|------------------|-----------------|
|------------------|-5----5----5-|-(5)---------5----|-3--0-1-(1)-0----|
|-(5)---5-(5)-5-5--|-------------|-------5-(5)---3--|--------------3--|


  +Q.   E +Q   E E   Q  E E +E  E Q    E E +E  E +E  E Q    H    Q.   E
|------------------|-----------------|--------------------|-------------|
|------------------|-----------------|-----------------5--|-------------|
|------------------|-3--0-1-(1)-0----|---------0-(0)-5----|-------------|
|-(3)---3-(3)--3-3-|--------------3--|-1-3-(3)------------|-5----5----5-|


  +Q.   E +E  E Q    H    Q.   E   +Q.   E +E  E Q    Q  E E +E  E Q
|------------------|-------------|------------------|-----------------|
|------------------|-------------|------------------|-----------------|
|------------------|-5----5----5-|-(5)---------5----|-3--0-1-(1)-0----|
|-(5)---5-(5)-5-5--|-------------|-------5-(5)---3--|--------------3--|


  +Q.   E +Q   E E   Q  E E +E  E Q    E E +E  E +E  E Q    H    Q.   E
|------------------|-----------------|--------------------|-------------|
|------------------|-----------------|-----------------5--|-------------|
|------------------|-3--0-1-(1)-0----|---------0-(0)-5----|-------------|
|-(3)---3-(3)--3-3-|--------------3--|-1-3-(3)------------|-5----5----5-|


  +Q.   E +E  E Q    H    Q.   E   +Q.   E +E  E Q    Q  E E +E  E Q
|------------------|-------------|------------------|-----------------|
|------------------|-------------|------------------|-----------------|
|------------------|-5----5----5-|-(5)---------5----|-3--0-1-(1)-0----|
|-(5)---5-(5)-5-5--|-------------|-------5-(5)---3--|--------------3--|


  +Q.   E +Q   E E   Q  E E +E  E Q    E E +E  E +E  E Q    W
|------------------|-----------------|--------------------|------|
|------------------|-----------------|-----------------5--|------|
|------------------|-3--0-1-(1)-0----|---------0-(0)-5----|------|
|-(3)---3-(3)--3-3-|--------------3--|-1-3-(3)------------|-5----|


  +W           +W
|------------|--------*|
|------------|--------*|
|------------|--------*|
|-(5)--------|-(5)----*|





Comments


Popular Opeth tabs & chords
Deliverance 3 Bass Tabs
The Amen Corner Bass Tabs
Forest Of October Tabs
Haxprocess Tabs
Hex Omega Tabs
Hope Leaves 2 Tabs
Leper Affinity 2 Tabs
Remember Tomorow Intro Tabs
Serenity Painted Death 1 Tabs
The Lotus Eater Tabs


Song lyrics



↑ Back to top | Tablatures and chords are parodies/interpretations of the original songs. You may use it for private study, scholarship, research or language learning purposes only
© 2014 AZChords.com Contact us | Privacy policy | DMCA | Add/correct tabs | Request tabs | Top 50 tabs