>
 >
Coil 2

Coil 2 Guitar Tabs

Opeth - Coil 2 chords, tabs, tablatures, lyrics

Guitar lessons | Add/correct | Request | Top 50 tabs Artists:  A B C D E F G H I J K L M N O P Q R S T U V W X Y Z 0-9

Coil 2 Guitar Tabs – Opeth

CD, Sheet music, Poster

Do you like Coil 2? Share with your friends now
TabsTabs v2Tabs v3
#------------------------------------------------------------------------------##

                                      COIL
                              As recorded by Opeth
                         (From the 2008 Album WATERSHED)

Words and Music by Mikael Åkerfeldt

Gtr I (E A D G B E) - 'Guitar I'
Gtr II (E A D G B E) - 'Guitar II'

Thanks to Xerosis whos tab I used to help with mine.

   Intro
    Q=133
   4/4
    Gtr I
    E E E E E E E E   +W           E E E E E E E E   +W
||----------0-------|------------|---------0-------|--------|
||o-------0---0-----|------------|-------0---0-----|--------|
||------5-------5---|------------|-----8-------8---|--------|
||----4-----------4-|-(4)--------|---7-----------7-|-(7)----|
||o-0---------------|------------|-0---------------|--------|
||------------------|------------|-----------------|--------|
|
|   Gtr II
|   E E E E E E E E   +W           E E E E E E E E   +W
||----------0-------|------------|---------0-------|--------|
||o-------0---0-----|------------|-------0---0-----|--------|
||--2---5-------5---|------------|-----8-------8---|--------|
||----4-----------4-|-(4)--------|-7-------------7-|-(7)----|
||o-----------------|------------|---0-------------|--------|
||------------------|------------|-----------------|--------|


  Gtrs I, II
   E  E E  E  H      +H      E  E E  E
|-^0-!0---^0-!0----|-(0)----^0-!0---^0-|
|-^5-!5---^3-!3----|-(3)----^3-!3---^1-|
|-^6-!6---^4-!4----|-(4)----^4-!4---^2-|
|-^7-!7---^5-!5----|-(5)----^5-!5---^3-|
|-^0-!0---^0-!0----|-(0)----^0-!0---^0-|
|------------------|-------------------|


                                   1.
                                  6/4
   W           E  E E  E  E E Q     W.
|-^0--------|-^0-!0--------------|-^0------||
|-^1--------|-^1-!1---^0-!0------|-^1-----o||
|-^2--------|-^2-!2---^0-!0h2----|-^2------||
|-^3--------|-^3-!3---^2-!2------|-^2------||
|-^0--------|-^0-!0---^0-!0---0--|--------o||
|-----------|--------------------|---------||


  2.
 3/4                           4/4
  Gtr I
   E  E E E E E   E E E E E E   E E E E E E E E   E E E E E E E E
|---------------|-------------|-----------------|-----------------|
|---------------|-------------|-----------------|-----------------|
|-----9-----9---|---9-----9---|-7---9-----9-----|-9-----9-----9---|
|-------7-----7-|-----7-----7-|---5---7-----7---|---7-----7-----7-|
|--0------0-----|-0-----0-----|-0-------0-----0-|-----0-----0-----|
|---------------|-------------|-----------------|-----------------|
|
| Gtr II
|  H.
|-^0------------|-------------|-----------------|-----------------|
|-^1------------|-------------|-----------------|-----------------|
|-^2------------|-------------|-----------------|-----------------|
|-^2------------|-------------|-----------------|-----------------|
|---------------|-------------|-----------------|-----------------|
|---------------|-------------|-----------------|-----------------|


   Verse
    Gtr I
    E E E E E E E E   E E E E E E E E   E E E E E E E E   E E E E E E E E   4x
||------------------|-----------------|-----------------|-------------------||
||o-----------------|-----------------|-----------------|------------------o||
||--7---9-----9-----|-9-----9-----9---|-7---9-----9-----|-9-----9-----9-----||
||----5---7-----7---|---7-----7-----7-|---5---7-----7---|---7-----7-----7---||
||o-0-------0-----0-|-----0-----0-----|-0-------0-----0-|-----0-----0------o||
||------------------|-----------------|-----------------|-------------------||


  E E E E E E E E   S S E E E E E E E
|-----------------|-------------------|
|-1---3-----3-----|-------------------|
|-----------------|-------0-----0-----|
|---4---4-----4---|-----0-----0-------|
|-0-------0-----0-|-2h3-----2---------|
|-----------------|---------------3-0-|


  E E E E E E E E   E E E E E E E E   E E E E E E E E   E E E E E E E E
|-----------------|-----------------|-----------------|-----------------|
|-----------------|-----------------|-----------------|-----------------|
|-7---9-----9-----|-9-----9-----9---|-7---9-----9-----|-9-----9-----9---|
|---5---7-----7---|---7-----7-----7-|---5---7-----7---|---7-----7-----7-|
|-0-------0-----0-|-----0-----0-----|-0-------0-----0-|-----0-----0-----|
|-----------------|-----------------|-----------------|-----------------|


  E E E E E E E E   E E E E E E E E   E E E E E E E E   S S E E E E E E E
|-----------------|-----------------|-----------------|--------------------|
|-----------------|-----------------|-1---3-----3-----|--------------------|
|-7---9-----9-----|-9-----9-----9---|-----------------|-------0-----0------|
|---5---7-----7---|---7-----7-----7-|---4---4-----4---|-----0-----0--------|
|-0-------0-----0-|-----0-----0-----|-0-------0-----0-|-2h3-----2----------|
|-----------------|-----------------|-----------------|---------------3-0--|


  E E E E E E E E   E E E E E E E E   E E E E E E E E   E E E E E E E E
|-----------------|-----------------|-----------------|-----------------|
|-----------------|-----------------|-----------------|-----------------|
|-7---9-----9-----|-9-----9-----9---|-7---9-----9-----|-9-----9-----9---|
|---5---7-----7---|---7-----7-----7-|---5---7-----7---|---7-----7-----7-|
|-0-------0-----0-|-----0-----0-----|-0-------0-----0-|-----0-----0-----|
|-----------------|-----------------|-----------------|-----------------|


   Chorus
    E E E E E E E E   E E E E E E E E   E E E E E E E E   E E E E E E E E
||------------------|---------0-------|-----------------|------------------|
||o---------3-------|-------0---0-----|---------3-------|------------------|
||------0-------0---|-----5-------5---|-----0-----------|-----7-------0----|
||----0---0---0-----|---7-------------|---0---0---0-0---|---7---7---0---0--|
||o---------------2-|-0-------------7-|---------------2-|-5-------3--------|
||--3---------------|-----------------|-3---------------|------------------|


  1.
                               |-3-|
  E E E E E E E E   E E  E E E S S S E E
|-----------------|----------------------|
|-----------------|-8---10---8-7h8p7-----|
|-----7---6S7S9---|------------------9-7-|
|---7---7-------7-|---7----7-------------|
|-0---------------|----------------------|
|-----------------|----------------------|


  E  E  E E E E E E   E E E E E E E E
|-------------------|--------------------||
|-------------------|-------------------o||
|-6-(6)-6---7-6---4-|---7---6---2---0----||
|-7h=9--7---9-7---5-|---9---7---2---0----||
|---------0-----0---|-0---0---0---0-----o||
|-------------------|--------------------||


  E E E E E E E E   E E E E E E E E   E E E E E E E E   E E E E E E E E
|-----------------|-----------------|-----------------|-----------------*|
|-----------------|-----------------|-----------------|-----------------*|
|-7---9-----9-----|-9-----9-----9---|-7---9-----9-----|-9-----9-----9---*|
|---5---7-----7---|---7-----7-----7-|---5---7-----7---|---7-----7-----7-*|
|-0-------0-----0-|-----0-----0-----|-0-------0-----0-|-----0-----0-----*|
|-----------------|-----------------|-----------------|-----------------*|

Then just play from the vesre again and your done!


Duration Legend
---------------
W - whole; H - half; Q - quarter; E - 8th; S - 16th; T - 32nd; X - 64th; a - acciaccatura
+ - note tied to previous; . - note dotted; .. - note double dotted
Uncapitalized letters represent notes that are staccato (1/2 duration)
Irregular groupings are notated above the duration line
Duration letters will always appear directly above the note/fret number it represents the
duration for.  Duration letters with no fret number below them represent rests.  Multi-
bar rests are notated in the form Wxn, where n is the number of bars to rest for.  Low
melody durations appear below the staff

Tablature Legend
----------------
 h   - hammer-on
 p   - pull-off
 b   - bend
 pb  - pre-bend
 r   - bend release (if no number after the r, then release immediately)
 /\  - slide into or out of (from/to "nowhere")
 s   - legato slide
 S   - shift slide
  - natural harmonic
[n]  - artificial harmonic
n(n) - tapped harmonic
 ~   - vibrato
 tr  - trill
 T   - tap
 TP  - trem. picking
 PM  - palm muting
\n/  - tremolo bar dip; n = amount to dip
 \n  - tremolo bar down
 n/  - tremolo bar up
/n\  - tremolo bar inverted dip
 =   - hold bend; also acts as connecting device for hammers/pulls
 <>  - volume swell (louder/softer)
 x   - on rhythm slash represents muted slash
 o   - on rhythm slash represents single note slash

Misc Legend
-----------
 |  - bar
||  - double bar
||o - repeat start
o|| - repeat end
*|  - double bar (ending)
 :  - bar (freetime)
 $  - Segno
 &  - Coda
Tempo markers -  = BPM(8/16=s8/s16), where s8 = swing 8ths, s16 = swing 16ths


***************************************************************************************
***************************************************************************************





Comments


Popular Opeth tabs & chords
Burden Bass Tabs
Advent Tabs
Benighted 3 Tabs
By The Pain I See In Others Tabs
Drapery Falls 1 Tabs
In My Time Of Need 1 Tabs
Madrigal Tabs
Serenity Painted Death 1 Tabs
The Apostle In Triumph Tabs
The Leper Affinity Tabs


Song lyrics



↑ Back to top | Tablatures and chords are parodies/interpretations of the original songs. You may use it for private study, scholarship, research or language learning purposes only
© 2014 AZChords.com Contact us | Privacy policy | DMCA | Add/correct tabs | Request tabs | Top 50 tabs