>
 >
Coil 1

Coil 1 Guitar Tabs

Opeth - Coil 1 chords, tabs, tablatures, lyrics

Guitar lessons | Add/correct | Request | Top 50 tabs Artists:  A B C D E F G H I J K L M N O P Q R S T U V W X Y Z 0-9

Coil 1 Guitar Tabs – Opeth

CD, Sheet music, Poster

Do you like Coil 1? Share with your friends now
TabsTabs v2Tabs v3
-------------------------------------------------------------------------------
                             Coil - Opeth (Watershed 2008)
-------------------------------------------------------------------------------

Tuning: Standard (EADGBe)
Legend:
h - hammer on
p - pull of
/ - slide up/down to
x - do not play string


-----0-------|-----0-------|
----0-0------|----0-0------|
---5---5-----|---8---8-----|
--4-----4~---|--7-----7~---|
-0-----------|-0-----------|
-------------|-------------|

        "Always take care of this..."
-0-0--0-0~--0-0--0-0~--0-0----------0---|
-5-5--3-3~--3-3--1-1~--1-1-(0)------1---|
-6-6--4-4~--4-4--2-2~--2-2--0-0h2---2---|
-7-7--5-5~--5-5--3-3~--3-3--0-0h2-2-2---|
-0-0--0-0~--0-0--0-0~--0-0-(0)----0-0---|
-x-x--x-x~--x-x--x-x~--x-x--------------|

"For nothing..."
Timing's a little funny.. after the fourth 0-7-9
you hit 9 as if to start again, slide down and pluck
the A and D, then slide back up. Each slide takes a beat.
------------------------|
------------------------|
-9---9---9---9---9\-7---|  Repeat a bunch
--7---7---7---7---------|  of times.
---0---0---0---0----0---|
------------------------|

"I found that the years passed us by..."
Quick hammer on the 2, and after the low G
note you finger 5th and 7th frets on the D and G strings.
Hit the single note at the end then slide up to the 9-7-0 stuff.
-----------------------|
-----------------------|
-7---7------0---0---7--|
--5---5----0-----------|
---0---0--3--0h2-------|
------------------3----|

------------------------|
------------------------|
-9---9---9---9---9\-7---|  Repeat a bunch
--7---7---7---7---------|  of times.
---0---0---0---0----0---|
------------------------|

"And I can see you..."
-------------|-----0-------|
-----3-------|----0-0------|
---0--0-0----|---5---5-----|
--0-0--0-----|--7-----7----|
-------------|-0-----------|
-3-----------|-------------|

"Running through the fields..."
-------------|-------------|
-----3-------|---3---------|
---0--0-0----|--2------0---|
--0-0--0-----|-0------0----|
-------------|-----0h3-----|
-3-----------|-------------|

"..of sorrow"
Better prepare the first 9 with your pinky while your pointer
holds the 6 on the same string. Middle finger gets the 7.
There's a tricky little shift here, you switch from a power-chord
kind of fingering to barring the last 4 strings at the 7th fret.
The notes are played evenly but I spaced them a bit... makes it easier
to mentally group them and see the alternating notes at the 7th fret.

                      V shift around here
----------------------------------------|
------------------8---10---8-7h8p7------|
-----9----6--7----------------------9-7-|
----7-7----7--7----7----7---------------|
-0--------------------------------------|
----------------------------------------|

..and then the series of double stops.
Slide into the 11th fret one and start
hitting the open A note in between each.
----------------------------------------------|
----------------------------------------------|
-6--7--/9-----7-----6-----4-----7-----6-----2-|
-7--9--/11----9-----7-----5-----9-----7-----2-|
-------(0)-0-----0-----0-----0-----0-----0----|
----------------------------------------------|

"And I can see you..."
-------------|-----0-------|
-----3-------|----0-0------|
---0--0-0----|---5---5-----|
--0-0--0-----|--7-----7----|
-------------|-0-----------|
-3-----------|-------------|

"Running through the fields..."
-------------|-------------|
-----3-------|---3---------|
---0--0-0----|--2------0---|
--0-0--0-----|-0------0----|
-------------|-----0h3-----|
-3-----------|-------------|

"Of sorrow"
------------------------|
------------------------|
-9---9---9---9---9\-7---|  The second time around
--7---7---7---7---------|  You go back to repeating this
---0---0---0---0----0---|  instead of doing the fancy riff.
------------------------|

That's all there is to it... cool song.





Comments


Popular Opeth tabs & chords
Advent Bass Tabs
Wreath Bass Tabs
Den Standiga Resan 1 Chords
Circle Of Tyrants Tabs
Closure Tabs
Folklore Intro Tabs
Hex Omega 1 Tabs
Masters Apprentice (Intro) Tabs
When Tabs
White Cluster Tabs


Song lyrics



↑ Back to top | Tablatures and chords are parodies/interpretations of the original songs. You may use it for private study, scholarship, research or language learning purposes only
© 2014 AZChords.com Contact us | Privacy policy | DMCA | Add/correct tabs | Request tabs | Top 50 tabs