>
 >
Burden 1

Burden 1 Guitar Tabs

Opeth - Burden 1 chords, tabs, tablatures, lyrics

Guitar lessons | Add/correct | Request | Top 50 tabs Artists:  A B C D E F G H I J K L M N O P Q R S T U V W X Y Z 0-9

Burden 1 Guitar Tabs – Opeth

CD, Sheet music, Poster

Do you like Burden 1? Share with your friends now
Bass TabsChordsTabsTabs v2Tabs v3Ukulele
                 OPETH--------------Burden

I realize this tab is by no means a complete tab of the entire
song, and I hope to come back and add more guitar solo parts later.
But if you were wondering how to play along with it, play it for
your friends, whatever, then here's a pretty good summary of most
of the song.

   Am           Dm           G
E|-5--5--5--5---5--5---------3--3---|
B|-5--5--5--5---6--6---------3--3---|
G|-5--5--5--5---7--7---------4--4---|
D|-7--7--7--7---7--7---------5--5---|
A|-7--7--7--7---5--5---------5--5---|
E|-5--5--5--5----------------3--3---|
      I         once upon a time
     Saw        movement in their eyes
      If        death should take me now

   Gm       C      D
E|-3--3-----3--3---2--2--2--2---|
B|-3--3-----5--5---3--3--3--3---|
G|-3--3-----5--5---2--2--2--2---|
D|-5--5-----5--5---0--0--0--0---|
A|-5--5-----3--3----------------|
E|-3--3-------------------------|
  Carried a burden inside
  Said I no longer knew the way
  Count my mistakes and let me through

   Dm               Am
E|-1--------1-------0--0------------------------------|
B|-3--------3-------1--1------------------------------|
G|-2--------2-------2--2----2------2---------0----0---|
D|-0--------0-------0--0----0------x------------------|
A|---------------------------------3---------2----1---|
E|----------------------------------------------------|
 I sung a   last goodbye, a broken rhyme I'd underlined
 Given up the ghost,      a passive mind  submit to fear
 Whisper in my ear,       you've taken more than we've recieved

           Gm       A
E|---------3--3-----5--5-----|
B|---------3--3-----5--5-----|
G|---------3--3-----6--6-----|
D|---------5--5-----7--7-----|
A|---------5--5-----7--7-----|
E|---------3--3-----5--5-----|
There's an ocean of sorrow in
And the wait for redemption at
And the ocean of sorrow is [to guitar solo]

   Dm      G            Bb         A
E|-1---1---3---3---3----1---1-1-1--0----|
B|-3---3---3---3---3----3---3-3-3--2----|
G|-2---2---0---0---0----3---3-3-3--2----|
D|-0---0---0---0---0----3---3-3-3--2----|
A|---------2---2---2----1---1-1-1--0----|
E|---------3---3---3--------------------|
   You                               Sor-
   Hand                             Wait-

   Dm      G            Bb         A
E|-1---1---3---3---3----1---1-1-1--0----|
B|-3---3---3---3---3----3---3-3-3--2----|
G|-2---2---0---0---0----3---3-3-3--2----|
D|-0---0---0---0---0----3---3-3-3--2----|
A|---------2---2---2----1---1-1-1--0----|
E|---------3---3---3--------------------|
  -row in  me
  -ing to fair

The chords behind the keyboard solo just alternate between
Dm (xx0231) and C (x30210).

   Dm      G            Bb         A
E|-1---1---3---3---3----1---1-1-1--0----|
B|-3---3---3---3---3----3---3-3-3--2----|
G|-2---2---0---0---0----3---3-3-3--2----|
D|-0---0---0---0---0----3---3-3-3--2----|
A|---------2---2---2----1---1-1-1--0----|
E|---------3---3---3--------------------|
 Failing again

Guitar Solo Chords:
   Dm      Bbmaj7  Gm      A
E|-1---1---1---1---3---3---5---5---|
B|-3---3---3---3---3---3---5---5---|
G|-2---2---2---2---3---3---6---6---|
D|-0---0---3---3---5---5---7---7---|
A|---------1---1---5---5---7---7---|
E|-----------------3---3---5---5---|
   You

Again, I know there's a lot missing, the solos and the acoustic
outro, but I will get to it later. Enjoy.





Comments


Popular Opeth tabs & chords
The Amen Corner Bass Tabs
Ending Credits Chords
Patterns In The Ivy Chords
Blackwater Park Tabs
Heir Apparent Tabs
Hessian Peel Partial Intro Tabs
I Feel The Dark 1 Tabs
Masters Apprentices Tabs
The Apostle In Triumph Tabs
The Leper Affinity Tabs


Song lyrics



↑ Back to top | Tablatures and chords are parodies/interpretations of the original songs. You may use it for private study, scholarship, research or language learning purposes only
© 2014 AZChords.com Contact us | Privacy policy | DMCA | Add/correct tabs | Request tabs | Top 50 tabs