>
 >
Burden

Burden Bass Tabs

Opeth - Burden chords, tabs, tablatures, lyrics

Guitar lessons | Add/correct | Request | Top 50 tabs Artists:  A B C D E F G H I J K L M N O P Q R S T U V W X Y Z 0-9

Burden Bass Tabs – Opeth

CD, Sheet music, Poster

Do you like Burden? Share with your friends now
Bass TabsChordsTabsTabs v2Tabs v3Ukulele
-------------------------------------------------------------------------------
-------------------------------------------------------------------------------


Tuning: E A D G

  Q=120
 4/4

  W          W          W          W
|----------|----------|----------|------|
|----------|----------|----------|------|
|----------|----------|----------|------|
|----------|----------|----------|------|


  W          W          W          W
|----------|----------|----------|------|
|----------|----------|----------|------|
|----------|----------|----------|------|
|----------|----------|----------|------|


  W          W          W          W
|----------|----------|----------|------|
|----------|----------|----------|------|
|----------|----------|----------|------|
|----------|----------|----------|------|


  W          W          W          W
|----------|----------|----------|------|
|----------|----------|----------|------|
|----------|----------|----------|------|
|----------|----------|----------|------|


  W          W          W          W
|----------|----------|----------|------|
|----------|----------|----------|------|
|----------|----------|----------|------|
|----------|----------|----------|------|


  W          W          W          W
|----------|----------|----------|------|
|----------|----------|----------|------|
|----------|----------|----------|------|
|----------|----------|----------|------|


  W          E E Q  +H       W          E E H    E E
|----------|---------------|----------|--------------|
|----------|---------------|-0--------|--------------|
|-0--------|-0---0--(0)----|----------|----------3-5-|
|----------|---------------|----------|-3---3--------|


  W          E E Q  +H       W
|----------|---------------|------|
|-5--------|---------------|------|
|----------|-3---3--(3)----|-5----|
|----------|---------------|------|


  S S S S S S S S S S S S S S S S   W          E E Q  +H
|---------5-7---7-7-5-----5-7---7-|----------|-7-5-7--(7)----|
|-5-7---7---------------7---------|----------|---------------|
|---------------------------------|-5--------|---------------|
|---------------------------------|----------|---------------|


  Q  E E +E  E Q    E E +Q   +H       W          Q.   E +Q   Q
|-----------------|-----------------|----------|----------------|
|-----------------|-----------------|----------|----------------|
|-5----3-(3)---2--|---1-(1)--(1)----|-3--------|-4-----------4--|
|-----------------|-----------------|----------|------5-(5)-----|


  Q.   E E E Q    +H     H      H    Q  Q    +H     H
|---------------|-------------|------------|-------------|
|---------------|-------------|------------|-------------|
|-5----5-3---2--|-(2)----2----|-1-------0--|-(0)----0----|
|---------------|-------------|------------|-------------|


  Q.   E E E Q    +E. S S S S S S S S S Q    H    Q  Q    +W
|---------------|--------------------------|------------|--------|
|-0----0--------|-----0-----------0---0----|------------|--------|
|--------3---2--|-(2)---2-------2-------2--|-1-------0--|-(0)----|
|---------------|---------3---3------------|------------|--------|


  +W           W          E E Q  +H       W
|------------|----------|---------------|------|
|------------|----------|---------------|-0----|
|-(0)--------|-0--------|-0---0--(0)----|------|
|------------|----------|---------------|------|


  E E H    E E   W          E E Q  +H       W
|--------------|----------|---------------|------|
|--------------|-5--------|---------------|------|
|----------3-5-|----------|-3---3--(3)----|-5----|
|-3---3--------|----------|---------------|------|


  S S S S S S S S S S S S S S S S   W          E E Q  +H
|---------5-7---7-7-5-----5-7---7-|----------|-7-5-7--(7)----|
|-5-7---7---------------7---------|----------|---------------|
|---------------------------------|-5--------|---------------|
|---------------------------------|----------|---------------|


  Q  E E +E  E Q    E E +Q   +H       W          Q.   E +Q   Q
|-----------------|-----------------|----------|----------------|
|-----------------|-----------------|----------|----------------|
|-5----3-(3)---2--|---1-(1)--(1)----|-3--------|-4-----------4--|
|-----------------|-----------------|----------|------5-(5)-----|


  Q.   E E E Q    +H     H      H    Q  Q    +H     H
|---------------|-------------|------------|-------------|
|---------------|-------------|------------|-------------|
|-5----5-3---2--|-(2)----2----|-1-------0--|-(0)----0----|
|---------------|-------------|------------|-------------|


  Q.   E E E Q    +E. S S S S S S S S S Q    H    Q  Q    +W
|---------------|--------------------------|------------|--------|
|-0----0--------|-----0-----------0---0----|---------0--|-(0)----|
|--------3---2--|-(2)---2-------2-------2--|-1----------|--------|
|---------------|---------3---3------------|------------|--------|


  Q  S S S S E E Q    +Q.    E  S  S S  S  E. S    Q   S  S S  S  E E Q
|----------2-7------|---------------------------|------------------------|
|-0--0-0------------|----------10-12---10-------|----------------12------|
|-------------------|-------10------------10----|-------------12---------|
|----------------8--|-(8)---------------------8-|-10--10-10-----------8--|


  +Q.    E  S  S S  S  E. S
|---------------------------|
|----------10-12---10-------|
|-------10------------10----|
|-(8)---------------------8-|


   Q   S  S S  S  E E Q    +Q.    E  S  S S  S  E. S
|------------------------|---------------------------|
|----------------12------|----------10-12---10-------|
|-------------12---------|-------10------------10----|
|-10--10-10-----------8--|-(8)---------------------8-|


   Q   S  S S  S  E E Q    +Q.    E  S  S S  S  E. S    Q   S  S S  S  E E Q
|------------------------|---------------------------|------------------------|
|----------------12------|----------10-12---10-------|----------------12------|
|-------------12---------|-------10------------10----|-------------12---------|
|-10--10-10-----------8--|-(8)---------------------8-|-10--10-10-----------8--|


  +Q.    E  S  S S  S  E. S
|---------------------------|
|----------10-12---10-------|
|-------10------------10----|
|-(8)---------------------8-|


   Q   S  S S  S  E E Q    +Q.    E  S  S S  S  E. S
|------------------------|---------------------------|
|----------------12------|----------10-12---10-------|
|-------------12---------|-------10------------10----|
|-10--10-10-----------8--|-(8)---------------------8-|


   Q   S  S S  S  E E Q    +Q.    E  S  S S  S  E. S    Q   S  S S  S  E E Q
|------------------------|---------------------------|------------------------|
|----------------12------|----------10-12---10-------|----------------12------|
|-------------12---------|-------10------------10----|-------------12---------|
|-10--10-10-----------8--|-(8)---------------------8-|-10--10-10-----------8--|


  +Q.    E  S  S S  S  E. S    Q.    E E E Q    +H     H      H    Q  Q
|---------------------------|-----------------|-------------|------------|
|----------10-12---10-------|-----------------|-------------|------------|
|-------10------------10----|-----------------|-------------|------------|
|-(8)---------------------8-|-10----10-8---7--|-(7)----7----|-6-------5--|


  +H     H      Q.   E E E Q    +E. S S S S S S S S S Q    H    Q  Q
|-------------|---------------|--------------------------|------------|
|-------------|---------------|-----0-----------0---0----|------------|
|-------------|-5----5-3---2--|-(2)---2-------2-------2--|-1-------0--|
|-(5)----5----|---------------|---------3---3------------|------------|


  +W           +W           W          E E Q  +H
|------------|------------|----------|---------------|
|------------|------------|----------|---------------|
|-(0)--------|-(0)--------|-0--------|-0---0--(0)----|
|------------|------------|----------|---------------|


  W          E E H    E E   W          E E Q  +H
|----------|--------------|----------|---------------|
|-0--------|--------------|-5--------|---------------|
|----------|----------3-5-|----------|-3---3--(3)----|
|----------|-3---3--------|----------|---------------|


  W          S S S S S S S S S S S S S S S S   W
|----------|---------5-7---7-7-5-----5-7---7-|------|
|----------|-5-7---7---------------7---------|------|
|-5--------|---------------------------------|-5----|
|----------|---------------------------------|------|


  E E Q  +H       Q  E E +E  E Q    E E +Q   +H       W
|-7-5-7--(7)----|-----------------|-----------------|------|
|---------------|-----------------|-----------------|------|
|---------------|-5----3-(3)---2--|---1-(1)--(1)----|-3----|
|---------------|-----------------|-----------------|------|


  Q.   E +Q   Q    H    H      E E Q  +H       H    H
|----------------|-----------|---------------|-----------|
|----------------|-----------|---------------|-----------|
|-4-----------4--|-5----5----|---------------|-----------|
|------5-(5)-----|-----------|-6---6--(6)----|-3----3----|


  E E Q  +H       H    H      E E Q  +H       H    H
|---------------|-----------|---------------|-----------|
|---------------|-----------|---------------|-----------|
|-0---0--(0)----|-5----5----|---------------|-----------|
|---3-----------|-----------|-6---6--(6)----|-3----3----|


  E E Q  +H       H    H      E E Q  +H       H    H
|---------------|-----------|---------------|-----------|
|---------------|-----------|---------------|-----------|
|-0---0--(0)----|-5----5----|---------------|-----------|
|---3-----------|-----------|-6---6--(6)----|-3----3----|


  E E Q  +H       H    H      E E Q  +H       H    H
|---------------|-----------|---------------|-----------|
|---------------|-----------|---------------|-----------|
|-0---0--(0)----|-5----5----|---------------|-----------|
|---------------|-----------|-6---6--(6)----|-3----3----|


  H    H      H    H      E E Q  +H       H    H
|-----------|-----------|---------------|-----------|
|-----------|-----------|---------------|-----------|
|-0----0----|-5----5----|---------------|-----------|
|-----------|-----------|-6---6--(6)----|-3----3----|


  E E Q  +H       H    H      E E Q  +H       H    H
|---------------|-----------|---------------|-----------|
|---------------|-----------|---------------|-----------|
|-0---0--(0)----|-5----5----|---------------|-----------|
|---3-----------|-----------|-6---6--(6)----|-3----3----|


  E E Q  +H       H    H      E E Q  +H       H    H
|---------------|-----------|---------------|-----------|
|---------------|-----------|---------------|-----------|
|-0---0--(0)----|-5----5----|---------------|-----------|
|---3-----------|-----------|-6---6--(6)----|-3----3----|


  E E Q  +H       H    H      E E Q  +H       H    H
|---------------|-----------|---------------|-----------|
|---------------|-----------|---------------|-----------|
|-0---0--(0)----|-5----5----|---------------|-----------|
|---3-----------|-----------|-6---6--(6)----|-3----3----|


  E E Q  +H       H    H      E E Q  +H       H    H
|---------------|-----------|---------------|-----------|
|---------------|-----------|---------------|-----------|
|-0---0--(0)----|-5----5----|---------------|-----------|
|---3-----------|-----------|-6---6--(6)----|-3----3----|


  E E Q  +H       H    H      E E Q  +H       H    H
|---------------|-----------|---------------|-----------|
|---------------|-----------|---------------|-----------|
|-0---0--(0)----|-5----5----|---------------|-----------|
|---3-----------|-----------|-6---6--(6)----|-3----3----|


  E E Q  +H       H    H      E E Q  +H       H    H
|---------------|-----------|---------------|-----------|
|---------------|-----------|---------------|-----------|
|-0---0--(0)----|-5----5----|---------------|-----------|
|---3-----------|-----------|-6---6--(6)----|-3----3----|


  E E Q  +H       H    H      E E Q  +H       H    H
|---------------|-----------|---------------|-----------|
|---------------|-----------|---------------|-----------|
|-0---0--(0)----|-5----5----|---------------|-----------|
|---3-----------|-----------|-6---6--(6)----|-3----3----|


  E E Q  +H       Q.   E Q.   E   E E Q  +H       W
|---------------|--------7------|---------------|------|
|---------------|------7--------|---------------|------|
|-0---0--(0)----|-5-------------|---------------|------|
|---3-----------|-------------5-|-6---6--(6)----|-3----|


  E E Q  +H       Q.   E Q.   E   E E Q  +H       W
|---------------|--------7------|---------------|------|
|---------------|------7--------|---------------|------|
|-0---0--(0)----|-5-------------|---------------|------|
|---3-----------|-------------5-|-6---6--(6)----|-3----|


  E E Q  +H       Q.   E Q.   E   E E Q  +H       W
|---------------|--------7------|---------------|------|
|---------------|------7--------|---------------|------|
|-0---0--(0)----|-5-------------|---------------|------|
|---3-----------|-------------5-|-6---6--(6)----|-3----|


  E E Q  +H       Q.   E Q.   E   E E Q  +H       W
|---------------|--------7------|---------------|------|
|---------------|------7--------|---------------|------|
|-0---0--(0)----|-5-------------|---------------|------|
|---3-----------|-------------5-|-6---6--(6)----|-3----|


  E E Q  +H       Q.   E Q.   E   E E Q  +H       W
|---------------|--------7------|---------------|------|
|---------------|------7--------|---------------|------|
|-0---0--(0)----|-5-------------|---------------|------|
|---3-----------|-------------5-|-6---6--(6)----|-3----|


  E E Q  +H       Q.   E Q.   E   E E Q  +H       W
|---------------|--------7------|---------------|------|
|---------------|------7--------|---------------|------|
|-0---0--(0)----|-5-------------|---------------|------|
|---3-----------|-------------5-|-6---6--(6)----|-3----|


  E E Q  +H       Q.   E Q.   E   E E Q  +H       W
|---------------|--------7------|---------------|------|
|---------------|------7--------|---------------|------|
|-0---0--(0)----|-5-------------|---------------|------|
|---3-----------|-------------5-|-6---6--(6)----|-3----|


  E E Q  +H       Q.   E Q.   E   E E Q  +H       W
|---------------|--------7------|---------------|------|
|---------------|------7--------|---------------|------|
|-0---0--(0)----|-5-------------|---------------|------|
|---3-----------|-------------5-|-6---6--(6)----|-3----|


  E E Q  +H       W          +W           +W
|---------------|----------|------------|--------|
|---------------|----------|------------|--------|
|-0---0--(0)----|-5--------|-(5)--------|-(5)----|
|---3-----------|----------|------------|--------|


  +W
|--------*|
|--------*|
|-(5)----*|
|--------*|





Comments


Popular Opeth tabs & chords
Damnation Bass Tabs
Deliverance Bass Tabs
Beneath The Mire Tabs
Cody You Birthday Song Tabs
Hessian Peel Tabs
Masters Apprentice (Intro) Tabs
Slither Tabs
The Drapery Falls Tabs
To Rid The Disease (Solo) Tabs
Windowpane Tabs


Song lyrics



↑ Back to top | Tablatures and chords are parodies/interpretations of the original songs. You may use it for private study, scholarship, research or language learning purposes only
© 2014 AZChords.com Contact us | Privacy policy | DMCA | Add/correct tabs | Request tabs | Top 50 tabs