» » »

Of Mice And Men, Second And Sebring Tabs (ver.4)

Artists:  A B C D E F G H I J K L M N O P Q R S T U V W X Y Z # 

Second And Sebring Tabs (ver.4)

Of Mice And Men Tabs
 Rating:
4/5 (4 votes)
Second And Sebring lessons Tabs too difficult? Try these video lessons and learn fast
                OHIOISONFIRE 7-string tab

Yes, I know it is played on a 6-string. I did this for my benefit. I enjoy playing 
7-string and I am too lazy to tune my entire guitar down.

INTRO

E|------------------------------------------------------------------|
B|------------------------------------------------------------------|
G|------------------------------------------------------------------|
D|--------------------------------------3-3-3--1-1------------------|
A|----------------1---------------------3-3-3--1-1------x2----------|
D|---------------1-1--------------------3-3-3--1-1------------------|
A|3--3--3-3--3-4-----3-4--3--3--3-3--3------------------------------|

E|------------------------------------------------------------------|
B|------------------------------------------------------------------|
G|------------------------------------------------------------------|
D|--------------------------------------3-3-3--1-1------------------|
A|---------------1----------------------3-3-3--1-1------------------|
D|5--5-5-5--5---1-1------5--5-5-5--5----3-3-3--1-1------------------|
A|3--3-3-3--3-4-----3-4--3--3-3-3--3--------------------------------|

E|------------------------------------------------------------------|
B|------------------------------------------------------------------|
G|------------------------------------------------------------------|
D|------------------------------------------------------------------|
A|---------------1--------------------------------------------------|
D|5--5-5-5--5---1-1------5--5-5-5--5--------------------------------|
A|3--3-3-3--3-4-----3-4--3--3-3-3--3--------------------------------|

VERSE 1

E|------------------------------------------------------------------|
B|------------------------------------------------------------------|
G|------------------------------------------------------------------|
D|------------------------------------------------------------------|
A|-----4------2-------------------------------------x2--------------|
D|-------5-55-2----x3-----555-555-555-555---------------------------|
A|3--3---3-33-------------444-444-444-444---------------------------|

E|------------------------------------------------------------------|
B|------------------------------------------------------------------|
G|------------------------------------------------------------------|
D|------------------------------------------------------------------|
A|-------------------------------------------------1----------------|
D|555--555-5555-5-5-5---555--555-5555-5-5-5--0-1--------------------|
A|333--333-3333-3-3-3---333--333-3333-3-3-3------3------------------|

BREAKDOWN 1

E|------------------------------------------------------------------|
B|------------------------------------------------------------------|
G|------------------------------------------------------------------|
D|------------------------------------------------------------------|
A|---------------------5~-------------------------------------------|
D|555--555-5555-5-5-5--5~-------------------------------------------|
A|333--333-3333-3-3-3-----------------------------------------------|

CHORUS

E|------------------------------------------------------------------|
B|------------------------------------------------------------------|
G|------------------------------------------------------------------|
D|6-------5------8--------------------------------------------------|
A|6-------5------8--------------------------------------------------|
D|6--x16--5--x8--8--x6----------------------------------------------|
A|------------------------------------------------------------------|

VERSE 2

E|------------------------------------------------------------------|
B|------------------------------------------------------------------|
G|------------------------------------------------------------------|
D|------------------------------------------------------------------|
A|3b4------------3b4------------3b4------------------1--------------|
D|----------2--------------2-2------------2--------1------2-----x2--|
A|----3-4-3---3------3-4-3----------3-4-3------3-4----3-4---4-------|

E|------------------------------------------------------------------|
B|------------------------------------------------------------------|
G|------------------------------------------------------------------|
D|------------------------------------------------------------------|
A|------1----------------1------------------------------------------|
D|----1-------2--------1-------2-----5--5--5-5-5--5--5--7\----------|
A|3-4-----3-4---4--3-4-----3-4---4---3--3--3-3-3--3--3--5\----------|

BREAKDOWN 2

E|------------------------------------------------------------------|
B|------------------------------------------------------------------|
G|------------------------------------------------------------------|
D|------------------------------------------------------------------|
A|------------------------------------------------------------------|
D|5--5--5-5--5--5-5-55555555--5--5--5-5--5--5-5-55555555------------|
A|3--3--3-3--3--3-3-33333333--3--3--3-3--3--3-3-33333333------------|

E|------------------------------------------------------------------|
B|------------------------------------------------------------------|
G|------------------------------------------------------------------|
D|------------------------------------------------------------------|
A|------------------------------------------------------------------|
D|5--5--5-5--5--5-5-55555555--5--5--5-5--5--5-5-----55555555--------|
A|4--4--4-4--4--4-4-44444444--3--3--3-3--3--3-3-----44444444--------|

CHORUS 2

E|------------------------------------------------------------------|
B|------------------------------------------------------------------|
G|------------------------------------------------------------------|
D|6-------5--------8--------3--------1--1--1-1--3-------------x2----|
A|6-------5--------8--------3--------1--1--1-1--3--4-4-4-4----------|
D|6--x16--5---x8---8---x8---3---x8---1--1--1-1--3--6-6-6-6----------|
A|-------------------------------------------------4-4-4-4----------|

E|------------------------------------------------------------------|
B|------------------------------------------------------------------|
G|------------------------------------------------------------------|
D|------------------------------------------------------------------|
A|-----------------------------------------------4-x8---------------|
D|6*---5*---11*--------8---------6---------8----------------x2------|
A|----------------3333----333333----333333----33--------------------|

VERSE 1

E|------------------------------------------------------------------|
B|------------------------------------------------------------------|
G|------------------------------------------------------------------|
D|------------------------------------------------------------------|
A|-----4------2-------------------------------------x2--------------|
D|-------5-55-2----x3-----555-555-555-555---------------------------|
A|3--3---3-33-------------444-444-444-444---------------------------|

BREAKDOWN 3

E|------------------------------------------------------------------|
B|------------------------------------------------------------------|
G|------------------------------------------------------------------|
D|------------------------------------------------------------------|
A|------------------------------------------------------------------|
D|5------------------------------5----------------------------------|
A|4------------------------------3----------------------------------|

CHORUS 3

E|------------------------------------------------------------------|
B|------------------------------------------------------------------|
G|------------------------------------------------------------------|
D|6-------5--------8--------3--------1--1--1-1--3-------------x2----|
A|6-------5--------8--------3--------1--1--1-1--3--4-4-4-4----------|
D|6--x16--5---x8---8---x8---3---x8---1--1--1-1--3--6-6-6-6----------|
A|-------------------------------------------------4-4-4-4----------|

OUTRO

E|------------------------------------------------------------------|
B|------------------------------------------------------------------|
G|------------------------------------------------------------------|
D|------------------------------------------------------------------|
A|------------------------------------------------------------------|
D|5--5--5-5--5--5-5-55555555-x2-5--5--5-5--5--5-5-55555555----------|
A|3--3--3-3--3--3-3-33333333----4--4--4-4--4--4-4-44444444----------|

E|------------------------------------------------------------------|
B|------------------------------------------------------------------|
G|------------------------------------------------------------------|
D|------------------------------------------------------------------|
A|------------------------------------------------------------------|
D|5--5--5-5--5--5-5-55555555--5--5--5-5--5--5-5---------------------|
A|3--3--3-3--3--3-3-33333333--3--3--3-3--3--3-3---------------------|
            
Submit corrections

comments powered by Disqus
↑ Back to top | Of Mice And Men Tabs for Second And Sebring. Lyrics for acoustic guitar and electric guitar. Tablatures and chords are parodies/interpretations of the original songs. You may use it for private study, scholarship, research or language learning purposes only